ISO-10303-21;
HEADER;
/* Generated by software containing ST-Developer
 * from STEP Tools, Inc. (www.steptools.com) 
 */

FILE_DESCRIPTION(
/* description */ (''),
/* implementation_level */ '2;1');

FILE_NAME(
/* name */ 
'D:\\VaultPracovni\\Zak\X\E1zky\\P\X2\015900ED\X0\slu\X2\0161\X0\enstv
\X\ED k profil\X2\016F\X0\m\\Trubkov\X\FD syst\X\E9m\\Novinky 28.5.202
0\\350031_P\X2\0159\X0\ipojen\X\ED na rovn\X\E9 plochy\\350031.stp',
/* time_stamp */ '2020-12-11T10:25:20+01:00',
/* author */ ('Spacek'),
/* organization */ ('Alutec K&K'),
/* preprocessor_version */ 'ST-DEVELOPER v18.1',
/* originating_system */ 'Autodesk Inventor 2021',
/* authorisation */ '');

FILE_SCHEMA (('AUTOMOTIVE_DESIGN { 1 0 10303 214 3 1 1 }'));
ENDSEC;

DATA;
#10=MECHANICAL_DESIGN_GEOMETRIC_PRESENTATION_REPRESENTATION('',(#13),#593);
#11=SHAPE_REPRESENTATION_RELATIONSHIP('SRR','None',#600,#12);
#12=ADVANCED_BREP_SHAPE_REPRESENTATION('',(#14),#592);
#13=STYLED_ITEM('',(#609),#14);
#14=MANIFOLD_SOLID_BREP('T\X2\011B\X0\leso2',#338);
#15=FACE_BOUND('',#53,.T.);
#16=FACE_BOUND('',#55,.T.);
#17=FACE_BOUND('',#57,.T.);
#18=FACE_BOUND('',#58,.T.);
#19=FACE_BOUND('',#60,.T.);
#20=PLANE('',#362);
#21=PLANE('',#363);
#22=PLANE('',#365);
#23=PLANE('',#369);
#24=PLANE('',#376);
#25=PLANE('',#381);
#26=PLANE('',#383);
#27=PLANE('',#384);
#28=PLANE('',#386);
#29=PLANE('',#388);
#30=PLANE('',#390);
#31=FACE_OUTER_BOUND('',#50,.T.);
#32=FACE_OUTER_BOUND('',#51,.T.);
#33=FACE_OUTER_BOUND('',#52,.T.);
#34=FACE_OUTER_BOUND('',#54,.T.);
#35=FACE_OUTER_BOUND('',#56,.T.);
#36=FACE_OUTER_BOUND('',#59,.T.);
#37=FACE_OUTER_BOUND('',#61,.T.);
#38=FACE_OUTER_BOUND('',#62,.T.);
#39=FACE_OUTER_BOUND('',#63,.T.);
#40=FACE_OUTER_BOUND('',#64,.T.);
#41=FACE_OUTER_BOUND('',#65,.T.);
#42=FACE_OUTER_BOUND('',#66,.T.);
#43=FACE_OUTER_BOUND('',#67,.T.);
#44=FACE_OUTER_BOUND('',#68,.T.);
#45=FACE_OUTER_BOUND('',#69,.T.);
#46=FACE_OUTER_BOUND('',#70,.T.);
#47=FACE_OUTER_BOUND('',#71,.T.);
#48=FACE_OUTER_BOUND('',#72,.T.);
#49=FACE_OUTER_BOUND('',#73,.T.);
#50=EDGE_LOOP('',(#221,#222,#223,#224,#225));
#51=EDGE_LOOP('',(#226,#227,#228,#229,#230));
#52=EDGE_LOOP('',(#231));
#53=EDGE_LOOP('',(#232));
#54=EDGE_LOOP('',(#233,#234,#235,#236));
#55=EDGE_LOOP('',(#237,#238,#239,#240));
#56=EDGE_LOOP('',(#241,#242,#243,#244));
#57=EDGE_LOOP('',(#245,#246,#247,#248));
#58=EDGE_LOOP('',(#249,#250,#251,#252));
#59=EDGE_LOOP('',(#253,#254,#255,#256));
#60=EDGE_LOOP('',(#257,#258,#259,#260));
#61=EDGE_LOOP('',(#261,#262,#263,#264));
#62=EDGE_LOOP('',(#265,#266,#267,#268,#269));
#63=EDGE_LOOP('',(#270,#271,#272,#273));
#64=EDGE_LOOP('',(#274,#275,#276,#277));
#65=EDGE_LOOP('',(#278,#279,#280,#281));
#66=EDGE_LOOP('',(#282,#283,#284,#285));
#67=EDGE_LOOP('',(#286,#287,#288,#289));
#68=EDGE_LOOP('',(#290,#291,#292,#293));
#69=EDGE_LOOP('',(#294,#295,#296,#297));
#70=EDGE_LOOP('',(#298,#299,#300,#301));
#71=EDGE_LOOP('',(#302));
#72=EDGE_LOOP('',(#303,#304,#305,#306));
#73=EDGE_LOOP('',(#307,#308,#309,#310));
#74=LINE('',#503,#102);
#75=LINE('',#507,#103);
#76=LINE('',#509,#104);
#77=LINE('',#511,#105);
#78=LINE('',#513,#106);
#79=LINE('',#514,#107);
#80=LINE('',#521,#108);
#81=LINE('',#526,#109);
#82=LINE('',#529,#110);
#83=LINE('',#534,#111);
#84=LINE('',#538,#112);
#85=LINE('',#542,#113);
#86=LINE('',#548,#114);
#87=LINE('',#551,#115);
#88=LINE('',#555,#116);
#89=LINE('',#558,#117);
#90=LINE('',#562,#118);
#91=LINE('',#565,#119);
#92=LINE('',#567,#120);
#93=LINE('',#569,#121);
#94=LINE('',#570,#122);
#95=LINE('',#572,#123);
#96=LINE('',#574,#124);
#97=LINE('',#577,#125);
#98=LINE('',#578,#126);
#99=LINE('',#580,#127);
#100=LINE('',#582,#128);
#101=LINE('',#588,#129);
#102=VECTOR('',#402,16.5);
#103=VECTOR('',#407,1.);
#104=VECTOR('',#408,1.);
#105=VECTOR('',#409,1.);
#106=VECTOR('',#410,1.);
#107=VECTOR('',#411,1.);
#108=VECTOR('',#420,1.);
#109=VECTOR('',#423,1.);
#110=VECTOR('',#426,1.);
#111=VECTOR('',#431,1.);
#112=VECTOR('',#434,1.);
#113=VECTOR('',#437,1.);
#114=VECTOR('',#442,1.);
#115=VECTOR('',#445,1.);
#116=VECTOR('',#450,1.);
#117=VECTOR('',#451,1.);
#118=VECTOR('',#454,1.);
#119=VECTOR('',#459,1.);
#120=VECTOR('',#462,1.);
#121=VECTOR('',#465,1.);
#122=VECTOR('',#466,1.);
#123=VECTOR('',#469,1.);
#124=VECTOR('',#472,1.);
#125=VECTOR('',#477,1.);
#126=VECTOR('',#478,1.);
#127=VECTOR('',#481,1.);
#128=VECTOR('',#484,1.);
#129=VECTOR('',#493,14.);
#130=CIRCLE('',#359,16.5);
#131=CIRCLE('',#360,16.5);
#132=CIRCLE('',#361,16.5);
#133=CIRCLE('',#364,14.);
#134=CIRCLE('',#366,16.5);
#135=CIRCLE('',#367,4.5);
#136=CIRCLE('',#368,4.5);
#137=CIRCLE('',#370,16.5);
#138=CIRCLE('',#371,16.5);
#139=CIRCLE('',#372,4.5);
#140=CIRCLE('',#373,4.5);
#141=CIRCLE('',#374,4.5);
#142=CIRCLE('',#375,4.5);
#143=CIRCLE('',#377,16.5);
#144=CIRCLE('',#378,4.5);
#145=CIRCLE('',#379,4.5);
#146=CIRCLE('',#391,14.);
#147=VERTEX_POINT('',#498);
#148=VERTEX_POINT('',#499);
#149=VERTEX_POINT('',#502);
#150=VERTEX_POINT('',#506);
#151=VERTEX_POINT('',#508);
#152=VERTEX_POINT('',#510);
#153=VERTEX_POINT('',#512);
#154=VERTEX_POINT('',#516);
#155=VERTEX_POINT('',#519);
#156=VERTEX_POINT('',#522);
#157=VERTEX_POINT('',#523);
#158=VERTEX_POINT('',#525);
#159=VERTEX_POINT('',#527);
#160=VERTEX_POINT('',#531);
#161=VERTEX_POINT('',#533);
#162=VERTEX_POINT('',#536);
#163=VERTEX_POINT('',#537);
#164=VERTEX_POINT('',#539);
#165=VERTEX_POINT('',#541);
#166=VERTEX_POINT('',#544);
#167=VERTEX_POINT('',#545);
#168=VERTEX_POINT('',#547);
#169=VERTEX_POINT('',#549);
#170=VERTEX_POINT('',#553);
#171=VERTEX_POINT('',#556);
#172=VERTEX_POINT('',#557);
#173=VERTEX_POINT('',#559);
#174=VERTEX_POINT('',#561);
#175=VERTEX_POINT('',#585);
#176=EDGE_CURVE('',#147,#148,#130,.T.);
#177=EDGE_CURVE('',#148,#147,#131,.T.);
#178=EDGE_CURVE('',#147,#149,#74,.T.);
#179=EDGE_CURVE('',#149,#149,#132,.T.);
#180=EDGE_CURVE('',#148,#150,#75,.T.);
#181=EDGE_CURVE('',#150,#151,#76,.F.);
#182=EDGE_CURVE('',#152,#151,#77,.T.);
#183=EDGE_CURVE('',#152,#153,#78,.T.);
#184=EDGE_CURVE('',#153,#148,#79,.T.);
#185=EDGE_CURVE('',#154,#154,#133,.T.);
#186=EDGE_CURVE('',#155,#150,#134,.F.);
#187=EDGE_CURVE('',#155,#147,#80,.T.);
#188=EDGE_CURVE('',#156,#157,#135,.T.);
#189=EDGE_CURVE('',#158,#156,#81,.T.);
#190=EDGE_CURVE('',#159,#158,#136,.T.);
#191=EDGE_CURVE('',#157,#159,#82,.T.);
#192=EDGE_CURVE('',#151,#160,#137,.T.);
#193=EDGE_CURVE('',#160,#161,#83,.T.);
#194=EDGE_CURVE('',#161,#152,#138,.T.);
#195=EDGE_CURVE('',#162,#163,#84,.T.);
#196=EDGE_CURVE('',#163,#164,#139,.T.);
#197=EDGE_CURVE('',#164,#165,#85,.T.);
#198=EDGE_CURVE('',#165,#162,#140,.T.);
#199=EDGE_CURVE('',#166,#167,#141,.T.);
#200=EDGE_CURVE('',#168,#166,#86,.T.);
#201=EDGE_CURVE('',#169,#168,#142,.T.);
#202=EDGE_CURVE('',#167,#169,#87,.T.);
#203=EDGE_CURVE('',#153,#170,#143,.F.);
#204=EDGE_CURVE('',#147,#170,#88,.T.);
#205=EDGE_CURVE('',#171,#172,#89,.T.);
#206=EDGE_CURVE('',#172,#173,#144,.T.);
#207=EDGE_CURVE('',#173,#174,#90,.T.);
#208=EDGE_CURVE('',#174,#171,#145,.T.);
#209=EDGE_CURVE('',#160,#155,#91,.T.);
#210=EDGE_CURVE('',#170,#161,#92,.F.);
#211=EDGE_CURVE('',#169,#174,#93,.T.);
#212=EDGE_CURVE('',#168,#171,#94,.T.);
#213=EDGE_CURVE('',#166,#172,#95,.T.);
#214=EDGE_CURVE('',#167,#173,#96,.T.);
#215=EDGE_CURVE('',#163,#156,#97,.T.);
#216=EDGE_CURVE('',#162,#158,#98,.T.);
#217=EDGE_CURVE('',#165,#159,#99,.T.);
#218=EDGE_CURVE('',#164,#157,#100,.T.);
#219=EDGE_CURVE('',#175,#175,#146,.T.);
#220=EDGE_CURVE('',#175,#154,#101,.T.);
#221=ORIENTED_EDGE('',*,*,#176,.T.);
#222=ORIENTED_EDGE('',*,*,#177,.T.);
#223=ORIENTED_EDGE('',*,*,#178,.T.);
#224=ORIENTED_EDGE('',*,*,#179,.F.);
#225=ORIENTED_EDGE('',*,*,#178,.F.);
#226=ORIENTED_EDGE('',*,*,#180,.T.);
#227=ORIENTED_EDGE('',*,*,#181,.T.);
#228=ORIENTED_EDGE('',*,*,#182,.F.);
#229=ORIENTED_EDGE('',*,*,#183,.T.);
#230=ORIENTED_EDGE('',*,*,#184,.T.);
#231=ORIENTED_EDGE('',*,*,#179,.T.);
#232=ORIENTED_EDGE('',*,*,#185,.T.);
#233=ORIENTED_EDGE('',*,*,#186,.T.);
#234=ORIENTED_EDGE('',*,*,#180,.F.);
#235=ORIENTED_EDGE('',*,*,#176,.F.);
#236=ORIENTED_EDGE('',*,*,#187,.F.);
#237=ORIENTED_EDGE('',*,*,#188,.F.);
#238=ORIENTED_EDGE('',*,*,#189,.F.);
#239=ORIENTED_EDGE('',*,*,#190,.F.);
#240=ORIENTED_EDGE('',*,*,#191,.F.);
#241=ORIENTED_EDGE('',*,*,#182,.T.);
#242=ORIENTED_EDGE('',*,*,#192,.T.);
#243=ORIENTED_EDGE('',*,*,#193,.T.);
#244=ORIENTED_EDGE('',*,*,#194,.T.);
#245=ORIENTED_EDGE('',*,*,#195,.T.);
#246=ORIENTED_EDGE('',*,*,#196,.T.);
#247=ORIENTED_EDGE('',*,*,#197,.T.);
#248=ORIENTED_EDGE('',*,*,#198,.T.);
#249=ORIENTED_EDGE('',*,*,#199,.F.);
#250=ORIENTED_EDGE('',*,*,#200,.F.);
#251=ORIENTED_EDGE('',*,*,#201,.F.);
#252=ORIENTED_EDGE('',*,*,#202,.F.);
#253=ORIENTED_EDGE('',*,*,#184,.F.);
#254=ORIENTED_EDGE('',*,*,#203,.T.);
#255=ORIENTED_EDGE('',*,*,#204,.F.);
#256=ORIENTED_EDGE('',*,*,#177,.F.);
#257=ORIENTED_EDGE('',*,*,#205,.T.);
#258=ORIENTED_EDGE('',*,*,#206,.T.);
#259=ORIENTED_EDGE('',*,*,#207,.T.);
#260=ORIENTED_EDGE('',*,*,#208,.T.);
#261=ORIENTED_EDGE('',*,*,#209,.F.);
#262=ORIENTED_EDGE('',*,*,#192,.F.);
#263=ORIENTED_EDGE('',*,*,#181,.F.);
#264=ORIENTED_EDGE('',*,*,#186,.F.);
#265=ORIENTED_EDGE('',*,*,#193,.F.);
#266=ORIENTED_EDGE('',*,*,#209,.T.);
#267=ORIENTED_EDGE('',*,*,#187,.T.);
#268=ORIENTED_EDGE('',*,*,#204,.T.);
#269=ORIENTED_EDGE('',*,*,#210,.T.);
#270=ORIENTED_EDGE('',*,*,#208,.F.);
#271=ORIENTED_EDGE('',*,*,#211,.F.);
#272=ORIENTED_EDGE('',*,*,#201,.T.);
#273=ORIENTED_EDGE('',*,*,#212,.T.);
#274=ORIENTED_EDGE('',*,*,#205,.F.);
#275=ORIENTED_EDGE('',*,*,#212,.F.);
#276=ORIENTED_EDGE('',*,*,#200,.T.);
#277=ORIENTED_EDGE('',*,*,#213,.T.);
#278=ORIENTED_EDGE('',*,*,#207,.F.);
#279=ORIENTED_EDGE('',*,*,#214,.F.);
#280=ORIENTED_EDGE('',*,*,#202,.T.);
#281=ORIENTED_EDGE('',*,*,#211,.T.);
#282=ORIENTED_EDGE('',*,*,#206,.F.);
#283=ORIENTED_EDGE('',*,*,#213,.F.);
#284=ORIENTED_EDGE('',*,*,#199,.T.);
#285=ORIENTED_EDGE('',*,*,#214,.T.);
#286=ORIENTED_EDGE('',*,*,#189,.T.);
#287=ORIENTED_EDGE('',*,*,#215,.F.);
#288=ORIENTED_EDGE('',*,*,#195,.F.);
#289=ORIENTED_EDGE('',*,*,#216,.T.);
#290=ORIENTED_EDGE('',*,*,#190,.T.);
#291=ORIENTED_EDGE('',*,*,#216,.F.);
#292=ORIENTED_EDGE('',*,*,#198,.F.);
#293=ORIENTED_EDGE('',*,*,#217,.T.);
#294=ORIENTED_EDGE('',*,*,#191,.T.);
#295=ORIENTED_EDGE('',*,*,#217,.F.);
#296=ORIENTED_EDGE('',*,*,#197,.F.);
#297=ORIENTED_EDGE('',*,*,#218,.T.);
#298=ORIENTED_EDGE('',*,*,#188,.T.);
#299=ORIENTED_EDGE('',*,*,#218,.F.);
#300=ORIENTED_EDGE('',*,*,#196,.F.);
#301=ORIENTED_EDGE('',*,*,#215,.T.);
#302=ORIENTED_EDGE('',*,*,#219,.F.);
#303=ORIENTED_EDGE('',*,*,#219,.T.);
#304=ORIENTED_EDGE('',*,*,#220,.T.);
#305=ORIENTED_EDGE('',*,*,#185,.F.);
#306=ORIENTED_EDGE('',*,*,#220,.F.);
#307=ORIENTED_EDGE('',*,*,#203,.F.);
#308=ORIENTED_EDGE('',*,*,#183,.F.);
#309=ORIENTED_EDGE('',*,*,#194,.F.);
#310=ORIENTED_EDGE('',*,*,#210,.F.);
#311=CYLINDRICAL_SURFACE('',#358,16.5);
#312=CYLINDRICAL_SURFACE('',#380,16.5);
#313=CYLINDRICAL_SURFACE('',#382,4.5);
#314=CYLINDRICAL_SURFACE('',#385,4.5);
#315=CYLINDRICAL_SURFACE('',#387,4.5);
#316=CYLINDRICAL_SURFACE('',#389,4.5);
#317=CYLINDRICAL_SURFACE('',#392,14.);
#318=CYLINDRICAL_SURFACE('',#393,16.5);
#319=ADVANCED_FACE('',(#31),#311,.T.);
#320=ADVANCED_FACE('',(#32),#20,.F.);
#321=ADVANCED_FACE('',(#33,#15),#21,.T.);
#322=ADVANCED_FACE('',(#34,#16),#22,.F.);
#323=ADVANCED_FACE('',(#35,#17,#18),#23,.T.);
#324=ADVANCED_FACE('',(#36,#19),#24,.F.);
#325=ADVANCED_FACE('',(#37),#312,.T.);
#326=ADVANCED_FACE('',(#38),#25,.F.);
#327=ADVANCED_FACE('',(#39),#313,.F.);
#328=ADVANCED_FACE('',(#40),#26,.T.);
#329=ADVANCED_FACE('',(#41),#27,.T.);
#330=ADVANCED_FACE('',(#42),#314,.F.);
#331=ADVANCED_FACE('',(#43),#28,.T.);
#332=ADVANCED_FACE('',(#44),#315,.F.);
#333=ADVANCED_FACE('',(#45),#29,.T.);
#334=ADVANCED_FACE('',(#46),#316,.F.);
#335=ADVANCED_FACE('',(#47),#30,.F.);
#336=ADVANCED_FACE('',(#48),#317,.F.);
#337=ADVANCED_FACE('',(#49),#318,.T.);
#338=CLOSED_SHELL('',(#319,#320,#321,#322,#323,#324,#325,#326,#327,#328,
#329,#330,#331,#332,#333,#334,#335,#336,#337));
#339=DERIVED_UNIT_ELEMENT(#341,1.);
#340=DERIVED_UNIT_ELEMENT(#595,3.);
#341=(
MASS_UNIT()
NAMED_UNIT(*)
SI_UNIT($,.GRAM.)
);
#342=DERIVED_UNIT((#339,#340));
#343=MEASURE_REPRESENTATION_ITEM('density measure',
POSITIVE_RATIO_MEASURE(1.),#342);
#344=PROPERTY_DEFINITION_REPRESENTATION(#349,#346);
#345=PROPERTY_DEFINITION_REPRESENTATION(#350,#347);
#346=REPRESENTATION('material name',(#348),#592);
#347=REPRESENTATION('density',(#343),#592);
#348=DESCRIPTIVE_REPRESENTATION_ITEM('V\X2\0161\X0\eobecn\X\E9',
'V\X2\0161\X0\eobecn\X\E9');
#349=PROPERTY_DEFINITION('material property','material name',#602);
#350=PROPERTY_DEFINITION('material property','density of part',#602);
#351=DATE_TIME_ROLE('creation_date');
#352=APPLIED_DATE_AND_TIME_ASSIGNMENT(#353,#351,(#602));
#353=DATE_AND_TIME(#354,#355);
#354=CALENDAR_DATE(2020,2,5);
#355=LOCAL_TIME(0,0,0.,#356);
#356=COORDINATED_UNIVERSAL_TIME_OFFSET(0,0,.BEHIND.);
#357=AXIS2_PLACEMENT_3D('placement',#496,#394,#395);
#358=AXIS2_PLACEMENT_3D('',#497,#396,#397);
#359=AXIS2_PLACEMENT_3D('',#500,#398,#399);
#360=AXIS2_PLACEMENT_3D('',#501,#400,#401);
#361=AXIS2_PLACEMENT_3D('',#504,#403,#404);
#362=AXIS2_PLACEMENT_3D('',#505,#405,#406);
#363=AXIS2_PLACEMENT_3D('',#515,#412,#413);
#364=AXIS2_PLACEMENT_3D('',#517,#414,#415);
#365=AXIS2_PLACEMENT_3D('',#518,#416,#417);
#366=AXIS2_PLACEMENT_3D('',#520,#418,#419);
#367=AXIS2_PLACEMENT_3D('',#524,#421,#422);
#368=AXIS2_PLACEMENT_3D('',#528,#424,#425);
#369=AXIS2_PLACEMENT_3D('',#530,#427,#428);
#370=AXIS2_PLACEMENT_3D('',#532,#429,#430);
#371=AXIS2_PLACEMENT_3D('',#535,#432,#433);
#372=AXIS2_PLACEMENT_3D('',#540,#435,#436);
#373=AXIS2_PLACEMENT_3D('',#543,#438,#439);
#374=AXIS2_PLACEMENT_3D('',#546,#440,#441);
#375=AXIS2_PLACEMENT_3D('',#550,#443,#444);
#376=AXIS2_PLACEMENT_3D('',#552,#446,#447);
#377=AXIS2_PLACEMENT_3D('',#554,#448,#449);
#378=AXIS2_PLACEMENT_3D('',#560,#452,#453);
#379=AXIS2_PLACEMENT_3D('',#563,#455,#456);
#380=AXIS2_PLACEMENT_3D('',#564,#457,#458);
#381=AXIS2_PLACEMENT_3D('',#566,#460,#461);
#382=AXIS2_PLACEMENT_3D('',#568,#463,#464);
#383=AXIS2_PLACEMENT_3D('',#571,#467,#468);
#384=AXIS2_PLACEMENT_3D('',#573,#470,#471);
#385=AXIS2_PLACEMENT_3D('',#575,#473,#474);
#386=AXIS2_PLACEMENT_3D('',#576,#475,#476);
#387=AXIS2_PLACEMENT_3D('',#579,#479,#480);
#388=AXIS2_PLACEMENT_3D('',#581,#482,#483);
#389=AXIS2_PLACEMENT_3D('',#583,#485,#486);
#390=AXIS2_PLACEMENT_3D('',#584,#487,#488);
#391=AXIS2_PLACEMENT_3D('',#586,#489,#490);
#392=AXIS2_PLACEMENT_3D('',#587,#491,#492);
#393=AXIS2_PLACEMENT_3D('',#589,#494,#495);
#394=DIRECTION('axis',(0.,0.,1.));
#395=DIRECTION('refdir',(1.,0.,0.));
#396=DIRECTION('center_axis',(0.,0.,-1.));
#397=DIRECTION('ref_axis',(-1.,0.,0.));
#398=DIRECTION('center_axis',(0.,0.,1.));
#399=DIRECTION('ref_axis',(1.,0.,0.));
#400=DIRECTION('center_axis',(0.,0.,1.));
#401=DIRECTION('ref_axis',(1.,0.,0.));
#402=DIRECTION('',(0.,0.,1.));
#403=DIRECTION('center_axis',(0.,0.,1.));
#404=DIRECTION('ref_axis',(1.,0.,0.));
#405=DIRECTION('center_axis',(1.,0.,0.));
#406=DIRECTION('ref_axis',(0.,0.,1.));
#407=DIRECTION('',(0.,1.,0.));
#408=DIRECTION('',(0.,0.,1.));
#409=DIRECTION('',(0.,1.,0.));
#410=DIRECTION('',(0.,0.,1.));
#411=DIRECTION('',(0.,1.,0.));
#412=DIRECTION('center_axis',(0.,0.,1.));
#413=DIRECTION('ref_axis',(1.,0.,0.));
#414=DIRECTION('center_axis',(0.,0.,-1.));
#415=DIRECTION('ref_axis',(1.,0.,0.));
#416=DIRECTION('center_axis',(0.,0.,-1.));
#417=DIRECTION('ref_axis',(1.,0.,0.));
#418=DIRECTION('center_axis',(0.,0.,-1.));
#419=DIRECTION('ref_axis',(-1.,0.,0.));
#420=DIRECTION('',(0.,-1.,0.));
#421=DIRECTION('center_axis',(0.,0.,1.));
#422=DIRECTION('ref_axis',(0.,1.,0.));
#423=DIRECTION('',(0.,-1.,0.));
#424=DIRECTION('center_axis',(0.,0.,1.));
#425=DIRECTION('ref_axis',(0.,1.,0.));
#426=DIRECTION('',(0.,1.,0.));
#427=DIRECTION('center_axis',(0.,0.,-1.));
#428=DIRECTION('ref_axis',(1.,0.,0.));
#429=DIRECTION('center_axis',(0.,0.,-1.));
#430=DIRECTION('ref_axis',(-1.,0.,0.));
#431=DIRECTION('',(0.,-1.,0.));
#432=DIRECTION('center_axis',(0.,0.,-1.));
#433=DIRECTION('ref_axis',(-1.,0.,0.));
#434=DIRECTION('',(0.,-1.,0.));
#435=DIRECTION('center_axis',(0.,0.,1.));
#436=DIRECTION('ref_axis',(0.,1.,0.));
#437=DIRECTION('',(0.,1.,0.));
#438=DIRECTION('center_axis',(0.,0.,1.));
#439=DIRECTION('ref_axis',(0.,1.,0.));
#440=DIRECTION('center_axis',(0.,0.,-1.));
#441=DIRECTION('ref_axis',(0.,-1.,0.));
#442=DIRECTION('',(0.,1.,0.));
#443=DIRECTION('center_axis',(0.,0.,-1.));
#444=DIRECTION('ref_axis',(0.,-1.,0.));
#445=DIRECTION('',(0.,-1.,0.));
#446=DIRECTION('center_axis',(0.,0.,-1.));
#447=DIRECTION('ref_axis',(1.,0.,0.));
#448=DIRECTION('center_axis',(0.,0.,-1.));
#449=DIRECTION('ref_axis',(-1.,0.,0.));
#450=DIRECTION('',(0.,-1.,0.));
#451=DIRECTION('',(0.,1.,0.));
#452=DIRECTION('center_axis',(0.,0.,-1.));
#453=DIRECTION('ref_axis',(0.,-1.,0.));
#454=DIRECTION('',(0.,-1.,0.));
#455=DIRECTION('center_axis',(0.,0.,-1.));
#456=DIRECTION('ref_axis',(0.,-1.,0.));
#457=DIRECTION('center_axis',(0.,0.,1.));
#458=DIRECTION('ref_axis',(1.,0.,0.));
#459=DIRECTION('',(0.,0.,1.));
#460=DIRECTION('center_axis',(-1.,0.,0.));
#461=DIRECTION('ref_axis',(0.,0.,-1.));
#462=DIRECTION('',(0.,0.,1.));
#463=DIRECTION('center_axis',(0.,0.,1.));
#464=DIRECTION('ref_axis',(-1.22464679914735E-16,-1.,0.));
#465=DIRECTION('',(0.,0.,1.));
#466=DIRECTION('',(0.,0.,1.));
#467=DIRECTION('center_axis',(1.,0.,0.));
#468=DIRECTION('ref_axis',(0.,0.,1.));
#469=DIRECTION('',(0.,0.,1.));
#470=DIRECTION('center_axis',(-1.,0.,0.));
#471=DIRECTION('ref_axis',(0.,0.,-1.));
#472=DIRECTION('',(0.,0.,1.));
#473=DIRECTION('center_axis',(0.,0.,1.));
#474=DIRECTION('ref_axis',(0.,1.,0.));
#475=DIRECTION('center_axis',(1.,0.,0.));
#476=DIRECTION('ref_axis',(0.,0.,1.));
#477=DIRECTION('',(0.,0.,1.));
#478=DIRECTION('',(0.,0.,1.));
#479=DIRECTION('center_axis',(0.,0.,1.));
#480=DIRECTION('ref_axis',(1.22464679914735E-16,1.,0.));
#481=DIRECTION('',(0.,0.,1.));
#482=DIRECTION('center_axis',(-1.,0.,0.));
#483=DIRECTION('ref_axis',(0.,0.,-1.));
#484=DIRECTION('',(0.,0.,1.));
#485=DIRECTION('center_axis',(0.,0.,1.));
#486=DIRECTION('ref_axis',(0.,-1.,0.));
#487=DIRECTION('center_axis',(0.,0.,-1.));
#488=DIRECTION('ref_axis',(1.,0.,0.));
#489=DIRECTION('center_axis',(0.,0.,-1.));
#490=DIRECTION('ref_axis',(1.,0.,0.));
#491=DIRECTION('center_axis',(0.,0.,1.));
#492=DIRECTION('ref_axis',(-1.,0.,0.));
#493=DIRECTION('',(0.,0.,1.));
#494=DIRECTION('center_axis',(0.,0.,1.));
#495=DIRECTION('ref_axis',(1.,0.,0.));
#496=CARTESIAN_POINT('',(0.,0.,0.));
#497=CARTESIAN_POINT('Origin',(0.,0.,85.451653532219));
#498=CARTESIAN_POINT('',(16.5,0.,22.951653532219));
#499=CARTESIAN_POINT('',(-16.5,0.,22.9516535322158));
#500=CARTESIAN_POINT('Origin',(0.,0.,22.951653532219));
#501=CARTESIAN_POINT('Origin',(0.,0.,22.951653532219));
#502=CARTESIAN_POINT('',(16.5,0.,85.451653532219));
#503=CARTESIAN_POINT('',(16.5,-2.02066721859313E-15,85.451653532219));
#504=CARTESIAN_POINT('Origin',(0.,0.,85.451653532219));
#505=CARTESIAN_POINT('Origin',(-16.5,-45.25,20.4516535322158));
#506=CARTESIAN_POINT('',(-16.5,28.75,22.9516535322158));
#507=CARTESIAN_POINT('',(-16.5,-45.25,22.9516535322158));
#508=CARTESIAN_POINT('',(-16.5,28.75,20.4516535322158));
#509=CARTESIAN_POINT('',(-16.5,28.75,20.4516535322158));
#510=CARTESIAN_POINT('',(-16.5,-28.75,20.4516535322158));
#511=CARTESIAN_POINT('',(-16.5,-45.25,20.4516535322158));
#512=CARTESIAN_POINT('',(-16.5,-28.75,22.9516535322158));
#513=CARTESIAN_POINT('',(-16.5,-28.75,20.4516535322158));
#514=CARTESIAN_POINT('',(-16.5,-45.25,22.9516535322158));
#515=CARTESIAN_POINT('Origin',(0.,0.,85.451653532219));
#516=CARTESIAN_POINT('',(14.,0.,85.4516535322189));
#517=CARTESIAN_POINT('Origin',(0.,0.,85.4516535322189));
#518=CARTESIAN_POINT('Origin',(-16.5,45.25,22.9516535322158));
#519=CARTESIAN_POINT('',(16.5,28.75,22.9516535322158));
#520=CARTESIAN_POINT('Origin',(0.,28.75,22.9516535322158));
#521=CARTESIAN_POINT('',(16.5,45.25,22.9516535322158));
#522=CARTESIAN_POINT('',(-4.5,29.,22.9516535322158));
#523=CARTESIAN_POINT('',(4.5,29.,22.9516535322158));
#524=CARTESIAN_POINT('Origin',(-4.25007251614318E-14,29.,22.9516535322158));
#525=CARTESIAN_POINT('',(-4.5,33.,22.9516535322158));
#526=CARTESIAN_POINT('',(-4.5,33.,22.9516535322158));
#527=CARTESIAN_POINT('',(4.5,33.,22.9516535322158));
#528=CARTESIAN_POINT('Origin',(-4.25007251614318E-14,33.,22.9516535322158));
#529=CARTESIAN_POINT('',(4.5,29.,22.9516535322158));
#530=CARTESIAN_POINT('Origin',(-16.5,45.25,20.4516535322158));
#531=CARTESIAN_POINT('',(16.5,28.75,20.4516535322158));
#532=CARTESIAN_POINT('Origin',(0.,28.75,20.4516535322158));
#533=CARTESIAN_POINT('',(16.5,-28.75,20.4516535322158));
#534=CARTESIAN_POINT('',(16.5,45.25,20.4516535322158));
#535=CARTESIAN_POINT('Origin',(0.,-28.75,20.4516535322158));
#536=CARTESIAN_POINT('',(-4.5,33.,20.4516535322158));
#537=CARTESIAN_POINT('',(-4.5,29.,20.4516535322158));
#538=CARTESIAN_POINT('',(-4.5,33.,20.4516535322158));
#539=CARTESIAN_POINT('',(4.5,29.,20.4516535322158));
#540=CARTESIAN_POINT('Origin',(-4.25007251614318E-14,29.,20.4516535322158));
#541=CARTESIAN_POINT('',(4.5,33.,20.4516535322158));
#542=CARTESIAN_POINT('',(4.5,29.,20.4516535322158));
#543=CARTESIAN_POINT('Origin',(-4.25007251614318E-14,33.,20.4516535322158));
#544=CARTESIAN_POINT('',(-4.5,-29.,20.4516535322158));
#545=CARTESIAN_POINT('',(4.5,-29.,20.4516535322158));
#546=CARTESIAN_POINT('Origin',(-6.93889390390723E-15,-29.,20.4516535322158));
#547=CARTESIAN_POINT('',(-4.5,-33.,20.4516535322158));
#548=CARTESIAN_POINT('',(-4.5,-33.,20.4516535322158));
#549=CARTESIAN_POINT('',(4.5,-33.,20.4516535322158));
#550=CARTESIAN_POINT('Origin',(-6.93889390390723E-15,-33.,20.4516535322158));
#551=CARTESIAN_POINT('',(4.5,-29.,20.4516535322158));
#552=CARTESIAN_POINT('Origin',(-16.5,45.25,22.9516535322158));
#553=CARTESIAN_POINT('',(16.5,-28.75,22.9516535322158));
#554=CARTESIAN_POINT('Origin',(0.,-28.75,22.9516535322158));
#555=CARTESIAN_POINT('',(16.5,45.25,22.9516535322158));
#556=CARTESIAN_POINT('',(-4.5,-33.,22.9516535322158));
#557=CARTESIAN_POINT('',(-4.5,-29.,22.9516535322158));
#558=CARTESIAN_POINT('',(-4.5,-33.,22.9516535322158));
#559=CARTESIAN_POINT('',(4.5,-29.,22.9516535322158));
#560=CARTESIAN_POINT('Origin',(-6.93889390390723E-15,-29.,22.9516535322158));
#561=CARTESIAN_POINT('',(4.5,-33.,22.9516535322158));
#562=CARTESIAN_POINT('',(4.5,-29.,22.9516535322158));
#563=CARTESIAN_POINT('Origin',(-6.93889390390723E-15,-33.,22.9516535322158));
#564=CARTESIAN_POINT('Origin',(0.,28.75,20.4516535322158));
#565=CARTESIAN_POINT('',(16.5,28.75,20.4516535322158));
#566=CARTESIAN_POINT('Origin',(16.5,45.25,20.4516535322158));
#567=CARTESIAN_POINT('',(16.5,-28.75,20.4516535322158));
#568=CARTESIAN_POINT('Origin',(-6.93889390390723E-15,-33.,20.4516535322158));
#569=CARTESIAN_POINT('',(4.5,-33.,20.4516535322158));
#570=CARTESIAN_POINT('',(-4.5,-33.,20.4516535322158));
#571=CARTESIAN_POINT('Origin',(-4.5,-33.,20.4516535322158));
#572=CARTESIAN_POINT('',(-4.5,-29.,20.4516535322158));
#573=CARTESIAN_POINT('Origin',(4.5,-29.,20.4516535322158));
#574=CARTESIAN_POINT('',(4.5,-29.,20.4516535322158));
#575=CARTESIAN_POINT('Origin',(-6.93889390390723E-15,-29.,20.4516535322158));
#576=CARTESIAN_POINT('Origin',(-4.5,33.,20.4516535322158));
#577=CARTESIAN_POINT('',(-4.5,29.,20.4516535322158));
#578=CARTESIAN_POINT('',(-4.5,33.,20.4516535322158));
#579=CARTESIAN_POINT('Origin',(-4.25007251614318E-14,33.,20.4516535322158));
#580=CARTESIAN_POINT('',(4.5,33.,20.4516535322158));
#581=CARTESIAN_POINT('Origin',(4.5,29.,20.4516535322158));
#582=CARTESIAN_POINT('',(4.5,29.,20.4516535322158));
#583=CARTESIAN_POINT('Origin',(-4.25007251614318E-14,29.,20.4516535322158));
#584=CARTESIAN_POINT('Origin',(0.,0.,55.4516535322189));
#585=CARTESIAN_POINT('',(14.,0.,55.4516535322189));
#586=CARTESIAN_POINT('Origin',(0.,0.,55.4516535322189));
#587=CARTESIAN_POINT('Origin',(0.,0.,55.4516535322189));
#588=CARTESIAN_POINT('',(14.,1.71450551880629E-15,55.4516535322189));
#589=CARTESIAN_POINT('Origin',(0.,-28.75,20.4516535322158));
#590=UNCERTAINTY_MEASURE_WITH_UNIT(LENGTH_MEASURE(0.01),#594,
'DISTANCE_ACCURACY_VALUE',
'Maximum model space distance between geometric entities at asserted c
onnectivities');
#591=UNCERTAINTY_MEASURE_WITH_UNIT(LENGTH_MEASURE(0.01),#594,
'DISTANCE_ACCURACY_VALUE',
'Maximum model space distance between geometric entities at asserted c
onnectivities');
#592=(
GEOMETRIC_REPRESENTATION_CONTEXT(3)
GLOBAL_UNCERTAINTY_ASSIGNED_CONTEXT((#590))
GLOBAL_UNIT_ASSIGNED_CONTEXT((#594,#596,#597))
REPRESENTATION_CONTEXT('','3D')
);
#593=(
GEOMETRIC_REPRESENTATION_CONTEXT(3)
GLOBAL_UNCERTAINTY_ASSIGNED_CONTEXT((#591))
GLOBAL_UNIT_ASSIGNED_CONTEXT((#594,#596,#597))
REPRESENTATION_CONTEXT('','3D')
);
#594=(
LENGTH_UNIT()
NAMED_UNIT(*)
SI_UNIT(.MILLI.,.METRE.)
);
#595=(
LENGTH_UNIT()
NAMED_UNIT(*)
SI_UNIT(.CENTI.,.METRE.)
);
#596=(
NAMED_UNIT(*)
PLANE_ANGLE_UNIT()
SI_UNIT($,.RADIAN.)
);
#597=(
NAMED_UNIT(*)
SI_UNIT($,.STERADIAN.)
SOLID_ANGLE_UNIT()
);
#598=SHAPE_DEFINITION_REPRESENTATION(#599,#600);
#599=PRODUCT_DEFINITION_SHAPE('',$,#602);
#600=SHAPE_REPRESENTATION('',(#357),#592);
#601=PRODUCT_DEFINITION_CONTEXT('part definition',#606,'design');
#602=PRODUCT_DEFINITION('GA-104 WZ','350031',#603,#601);
#603=PRODUCT_DEFINITION_FORMATION('',$,#608);
#604=PRODUCT_RELATED_PRODUCT_CATEGORY('350031','350031',(#608));
#605=APPLICATION_PROTOCOL_DEFINITION('international standard',
'automotive_design',2009,#606);
#606=APPLICATION_CONTEXT(
'Core Data for Automotive Mechanical Design Process');
#607=PRODUCT_CONTEXT('part definition',#606,'mechanical');
#608=PRODUCT('GA-104 WZ','350031',$,(#607));
#609=PRESENTATION_STYLE_ASSIGNMENT((#610));
#610=SURFACE_STYLE_USAGE(.BOTH.,#613);
#611=SURFACE_STYLE_RENDERING_WITH_PROPERTIES($,#617,(#612));
#612=SURFACE_STYLE_TRANSPARENT(0.);
#613=SURFACE_SIDE_STYLE('',(#614,#611));
#614=SURFACE_STYLE_FILL_AREA(#615);
#615=FILL_AREA_STYLE('',(#616));
#616=FILL_AREA_STYLE_COLOUR('',#617);
#617=COLOUR_RGB('',0.749019607843137,0.749019607843137,0.749019607843137);
ENDSEC;
END-ISO-10303-21;
