ISO-10303-21;
HEADER;
/* Generated by software containing ST-Developer
 * from STEP Tools, Inc. (www.steptools.com) 
 */

FILE_DESCRIPTION(
/* description */ ('Gumov\X\FD doraz'),
/* implementation_level */ '2;1');

FILE_NAME(
/* name */ 
'D:\\VaultPracovni\\Zak\X\E1zky\\P\X2\015900ED\X0\slu\X2\0161\X0\enstv
\X\ED k profil\X2\016F\X0\m\\Trubkov\X\FD syst\X\E9m\\Novinky 28.5.202
0\\220030_Gumov\X\E1 z\X\E1slepka\\220030.stp',
/* time_stamp */ '2020-12-11T08:08:51+01:00',
/* author */ ('Nockin'),
/* organization */ ('Alutec K&K'),
/* preprocessor_version */ 'ST-DEVELOPER v18.1',
/* originating_system */ 'Autodesk Inventor 2021',
/* authorisation */ '');

FILE_SCHEMA (('AUTOMOTIVE_DESIGN { 1 0 10303 214 3 1 1 }'));
ENDSEC;

DATA;
#10=MECHANICAL_DESIGN_GEOMETRIC_PRESENTATION_REPRESENTATION('',(#13),#243);
#11=SHAPE_REPRESENTATION_RELATIONSHIP('SRR','None',#250,#12);
#12=ADVANCED_BREP_SHAPE_REPRESENTATION('',(#14),#242);
#13=STYLED_ITEM('',(#259),#14);
#14=MANIFOLD_SOLID_BREP('T\X2\011B\X0\leso2',#124);
#15=TOROIDAL_SURFACE('',#159,11.,6.);
#16=CONICAL_SURFACE('',#156,16.25,0.17467219900824);
#17=FACE_BOUND('',#37,.T.);
#18=FACE_BOUND('',#42,.T.);
#19=PLANE('',#147);
#20=PLANE('',#151);
#21=PLANE('',#152);
#22=PLANE('',#162);
#23=FACE_OUTER_BOUND('',#32,.T.);
#24=FACE_OUTER_BOUND('',#33,.T.);
#25=FACE_OUTER_BOUND('',#34,.T.);
#26=FACE_OUTER_BOUND('',#35,.T.);
#27=FACE_OUTER_BOUND('',#36,.T.);
#28=FACE_OUTER_BOUND('',#38,.T.);
#29=FACE_OUTER_BOUND('',#39,.T.);
#30=FACE_OUTER_BOUND('',#40,.T.);
#31=FACE_OUTER_BOUND('',#41,.T.);
#32=EDGE_LOOP('',(#84,#85,#86,#87));
#33=EDGE_LOOP('',(#88));
#34=EDGE_LOOP('',(#89,#90,#91,#92));
#35=EDGE_LOOP('',(#93));
#36=EDGE_LOOP('',(#94));
#37=EDGE_LOOP('',(#95));
#38=EDGE_LOOP('',(#96,#97,#98,#99));
#39=EDGE_LOOP('',(#100,#101,#102,#103,#104));
#40=EDGE_LOOP('',(#105,#106,#107,#108,#109));
#41=EDGE_LOOP('',(#110));
#42=EDGE_LOOP('',(#111));
#43=LINE('',#212,#47);
#44=LINE('',#219,#48);
#45=LINE('',#228,#49);
#46=LINE('',#234,#50);
#47=VECTOR('',#169,14.);
#48=VECTOR('',#178,8.);
#49=VECTOR('',#191,15.5);
#50=VECTOR('',#198,16.25);
#51=CIRCLE('',#145,14.);
#52=CIRCLE('',#146,14.);
#53=CIRCLE('',#149,8.);
#54=CIRCLE('',#150,8.);
#55=CIRCLE('',#153,15.5);
#56=CIRCLE('',#155,15.5);
#57=CIRCLE('',#157,17.);
#58=CIRCLE('',#158,17.);
#59=CIRCLE('',#160,11.);
#60=CIRCLE('',#161,6.);
#61=VERTEX_POINT('',#209);
#62=VERTEX_POINT('',#211);
#63=VERTEX_POINT('',#216);
#64=VERTEX_POINT('',#218);
#65=VERTEX_POINT('',#223);
#66=VERTEX_POINT('',#226);
#67=VERTEX_POINT('',#230);
#68=VERTEX_POINT('',#231);
#69=VERTEX_POINT('',#236);
#70=EDGE_CURVE('',#61,#61,#51,.T.);
#71=EDGE_CURVE('',#61,#62,#43,.T.);
#72=EDGE_CURVE('',#62,#62,#52,.T.);
#73=EDGE_CURVE('',#63,#63,#53,.T.);
#74=EDGE_CURVE('',#63,#64,#44,.T.);
#75=EDGE_CURVE('',#64,#64,#54,.T.);
#76=EDGE_CURVE('',#65,#65,#55,.T.);
#77=EDGE_CURVE('',#66,#66,#56,.T.);
#78=EDGE_CURVE('',#66,#65,#45,.T.);
#79=EDGE_CURVE('',#67,#68,#57,.T.);
#80=EDGE_CURVE('',#68,#67,#58,.T.);
#81=EDGE_CURVE('',#68,#66,#46,.T.);
#82=EDGE_CURVE('',#69,#69,#59,.T.);
#83=EDGE_CURVE('',#69,#67,#60,.T.);
#84=ORIENTED_EDGE('',*,*,#70,.F.);
#85=ORIENTED_EDGE('',*,*,#71,.T.);
#86=ORIENTED_EDGE('',*,*,#72,.T.);
#87=ORIENTED_EDGE('',*,*,#71,.F.);
#88=ORIENTED_EDGE('',*,*,#72,.F.);
#89=ORIENTED_EDGE('',*,*,#73,.F.);
#90=ORIENTED_EDGE('',*,*,#74,.T.);
#91=ORIENTED_EDGE('',*,*,#75,.T.);
#92=ORIENTED_EDGE('',*,*,#74,.F.);
#93=ORIENTED_EDGE('',*,*,#75,.F.);
#94=ORIENTED_EDGE('',*,*,#76,.F.);
#95=ORIENTED_EDGE('',*,*,#70,.T.);
#96=ORIENTED_EDGE('',*,*,#77,.F.);
#97=ORIENTED_EDGE('',*,*,#78,.T.);
#98=ORIENTED_EDGE('',*,*,#76,.T.);
#99=ORIENTED_EDGE('',*,*,#78,.F.);
#100=ORIENTED_EDGE('',*,*,#79,.F.);
#101=ORIENTED_EDGE('',*,*,#80,.F.);
#102=ORIENTED_EDGE('',*,*,#81,.T.);
#103=ORIENTED_EDGE('',*,*,#77,.T.);
#104=ORIENTED_EDGE('',*,*,#81,.F.);
#105=ORIENTED_EDGE('',*,*,#82,.F.);
#106=ORIENTED_EDGE('',*,*,#83,.T.);
#107=ORIENTED_EDGE('',*,*,#79,.T.);
#108=ORIENTED_EDGE('',*,*,#80,.T.);
#109=ORIENTED_EDGE('',*,*,#83,.F.);
#110=ORIENTED_EDGE('',*,*,#82,.T.);
#111=ORIENTED_EDGE('',*,*,#73,.T.);
#112=CYLINDRICAL_SURFACE('',#144,14.);
#113=CYLINDRICAL_SURFACE('',#148,8.);
#114=CYLINDRICAL_SURFACE('',#154,15.5);
#115=ADVANCED_FACE('',(#23),#112,.F.);
#116=ADVANCED_FACE('',(#24),#19,.F.);
#117=ADVANCED_FACE('',(#25),#113,.F.);
#118=ADVANCED_FACE('',(#26),#20,.T.);
#119=ADVANCED_FACE('',(#27,#17),#21,.T.);
#120=ADVANCED_FACE('',(#28),#114,.T.);
#121=ADVANCED_FACE('',(#29),#16,.T.);
#122=ADVANCED_FACE('',(#30),#15,.T.);
#123=ADVANCED_FACE('',(#31,#18),#22,.T.);
#124=CLOSED_SHELL('',(#115,#116,#117,#118,#119,#120,#121,#122,#123));
#125=DERIVED_UNIT_ELEMENT(#127,1.);
#126=DERIVED_UNIT_ELEMENT(#245,3.);
#127=(
MASS_UNIT()
NAMED_UNIT(*)
SI_UNIT($,.GRAM.)
);
#128=DERIVED_UNIT((#125,#126));
#129=MEASURE_REPRESENTATION_ITEM('density measure',
POSITIVE_RATIO_MEASURE(0.93),#128);
#130=PROPERTY_DEFINITION_REPRESENTATION(#135,#132);
#131=PROPERTY_DEFINITION_REPRESENTATION(#136,#133);
#132=REPRESENTATION('material name',(#134),#242);
#133=REPRESENTATION('density',(#129),#242);
#134=DESCRIPTIVE_REPRESENTATION_ITEM('Guma','Guma');
#135=PROPERTY_DEFINITION('material property','material name',#252);
#136=PROPERTY_DEFINITION('material property','density of part',#252);
#137=DATE_TIME_ROLE('creation_date');
#138=APPLIED_DATE_AND_TIME_ASSIGNMENT(#139,#137,(#252));
#139=DATE_AND_TIME(#140,#141);
#140=CALENDAR_DATE(2019,12,6);
#141=LOCAL_TIME(0,0,0.,#142);
#142=COORDINATED_UNIVERSAL_TIME_OFFSET(0,0,.BEHIND.);
#143=AXIS2_PLACEMENT_3D('placement',#207,#163,#164);
#144=AXIS2_PLACEMENT_3D('',#208,#165,#166);
#145=AXIS2_PLACEMENT_3D('',#210,#167,#168);
#146=AXIS2_PLACEMENT_3D('',#213,#170,#171);
#147=AXIS2_PLACEMENT_3D('',#214,#172,#173);
#148=AXIS2_PLACEMENT_3D('',#215,#174,#175);
#149=AXIS2_PLACEMENT_3D('',#217,#176,#177);
#150=AXIS2_PLACEMENT_3D('',#220,#179,#180);
#151=AXIS2_PLACEMENT_3D('',#221,#181,#182);
#152=AXIS2_PLACEMENT_3D('',#222,#183,#184);
#153=AXIS2_PLACEMENT_3D('',#224,#185,#186);
#154=AXIS2_PLACEMENT_3D('',#225,#187,#188);
#155=AXIS2_PLACEMENT_3D('',#227,#189,#190);
#156=AXIS2_PLACEMENT_3D('',#229,#192,#193);
#157=AXIS2_PLACEMENT_3D('',#232,#194,#195);
#158=AXIS2_PLACEMENT_3D('',#233,#196,#197);
#159=AXIS2_PLACEMENT_3D('',#235,#199,#200);
#160=AXIS2_PLACEMENT_3D('',#237,#201,#202);
#161=AXIS2_PLACEMENT_3D('',#238,#203,#204);
#162=AXIS2_PLACEMENT_3D('',#239,#205,#206);
#163=DIRECTION('axis',(0.,0.,1.));
#164=DIRECTION('refdir',(1.,0.,0.));
#165=DIRECTION('center_axis',(0.,1.,0.));
#166=DIRECTION('ref_axis',(-1.,0.,0.));
#167=DIRECTION('center_axis',(0.,1.,0.));
#168=DIRECTION('ref_axis',(-1.,0.,0.));
#169=DIRECTION('',(0.,1.,0.));
#170=DIRECTION('center_axis',(0.,1.,0.));
#171=DIRECTION('ref_axis',(-1.,0.,0.));
#172=DIRECTION('center_axis',(0.,1.,0.));
#173=DIRECTION('ref_axis',(0.,0.,1.));
#174=DIRECTION('center_axis',(0.,-1.,0.));
#175=DIRECTION('ref_axis',(-1.,0.,0.));
#176=DIRECTION('center_axis',(0.,-1.,0.));
#177=DIRECTION('ref_axis',(-1.,0.,0.));
#178=DIRECTION('',(0.,-1.,0.));
#179=DIRECTION('center_axis',(0.,-1.,0.));
#180=DIRECTION('ref_axis',(-1.,0.,0.));
#181=DIRECTION('center_axis',(0.,1.,0.));
#182=DIRECTION('ref_axis',(0.,0.,1.));
#183=DIRECTION('center_axis',(0.,-1.,0.));
#184=DIRECTION('ref_axis',(0.,0.,-1.));
#185=DIRECTION('center_axis',(0.,1.,0.));
#186=DIRECTION('ref_axis',(1.,0.,0.));
#187=DIRECTION('center_axis',(0.,1.,0.));
#188=DIRECTION('ref_axis',(-1.,0.,0.));
#189=DIRECTION('center_axis',(0.,1.,0.));
#190=DIRECTION('ref_axis',(1.,0.,0.));
#191=DIRECTION('',(0.,-1.,0.));
#192=DIRECTION('center_axis',(0.,1.,0.));
#193=DIRECTION('ref_axis',(-1.,0.,0.));
#194=DIRECTION('center_axis',(0.,1.,0.));
#195=DIRECTION('ref_axis',(1.,0.,0.));
#196=DIRECTION('center_axis',(0.,1.,0.));
#197=DIRECTION('ref_axis',(1.,0.,0.));
#198=DIRECTION('',(-0.173785333909048,-0.984783558817937,2.12825652910469E-17));
#199=DIRECTION('center_axis',(0.,1.,0.));
#200=DIRECTION('ref_axis',(0.,0.,1.));
#201=DIRECTION('center_axis',(0.,1.,0.));
#202=DIRECTION('ref_axis',(1.,0.,0.));
#203=DIRECTION('center_axis',(-1.,0.,1.22464679914735E-16));
#204=DIRECTION('ref_axis',(-1.22464679914735E-16,0.,-1.));
#205=DIRECTION('center_axis',(0.,1.,0.));
#206=DIRECTION('ref_axis',(0.,0.,1.));
#207=CARTESIAN_POINT('',(0.,0.,0.));
#208=CARTESIAN_POINT('Origin',(0.,0.,0.));
#209=CARTESIAN_POINT('',(14.,0.,1.71450551880629E-15));
#210=CARTESIAN_POINT('Origin',(0.,0.,0.));
#211=CARTESIAN_POINT('',(14.,30.,1.71450551880629E-15));
#212=CARTESIAN_POINT('',(14.,0.,-1.71450551880629E-15));
#213=CARTESIAN_POINT('Origin',(0.,30.,0.));
#214=CARTESIAN_POINT('Origin',(-6.71553090674409E-16,30.,0.));
#215=CARTESIAN_POINT('Origin',(0.,35.,0.));
#216=CARTESIAN_POINT('',(8.,35.,-9.79717439317883E-16));
#217=CARTESIAN_POINT('Origin',(0.,35.,0.));
#218=CARTESIAN_POINT('',(8.,33.,-9.79717439317883E-16));
#219=CARTESIAN_POINT('',(8.,35.,9.79717439317883E-16));
#220=CARTESIAN_POINT('Origin',(0.,33.,0.));
#221=CARTESIAN_POINT('Origin',(-7.7553251033388E-16,33.,1.15648231731787E-16));
#222=CARTESIAN_POINT('Origin',(-15.5,0.,0.));
#223=CARTESIAN_POINT('',(15.5,0.,-1.8982025386784E-15));
#224=CARTESIAN_POINT('Origin',(0.,0.,0.));
#225=CARTESIAN_POINT('Origin',(0.,10.25,0.));
#226=CARTESIAN_POINT('',(15.5,20.5,-1.8982025386784E-15));
#227=CARTESIAN_POINT('Origin',(0.,20.5,0.));
#228=CARTESIAN_POINT('',(15.5,10.25,-1.8982025386784E-15));
#229=CARTESIAN_POINT('Origin',(0.,24.75,0.));
#230=CARTESIAN_POINT('',(-2.0818995585505E-15,29.,-17.));
#231=CARTESIAN_POINT('',(17.,29.,-2.0818995585505E-15));
#232=CARTESIAN_POINT('Origin',(0.,29.,0.));
#233=CARTESIAN_POINT('Origin',(0.,29.,0.));
#234=CARTESIAN_POINT('',(16.25,24.75,-1.99005104861445E-15));
#235=CARTESIAN_POINT('Origin',(0.,29.,0.));
#236=CARTESIAN_POINT('',(-1.34711147906209E-15,35.,-11.));
#237=CARTESIAN_POINT('Origin',(0.,35.,0.));
#238=CARTESIAN_POINT('Origin',(-1.34711147906209E-15,29.,-11.));
#239=CARTESIAN_POINT('Origin',(0.,35.,0.));
#240=UNCERTAINTY_MEASURE_WITH_UNIT(LENGTH_MEASURE(0.01),#244,
'DISTANCE_ACCURACY_VALUE',
'Maximum model space distance between geometric entities at asserted c
onnectivities');
#241=UNCERTAINTY_MEASURE_WITH_UNIT(LENGTH_MEASURE(0.01),#244,
'DISTANCE_ACCURACY_VALUE',
'Maximum model space distance between geometric entities at asserted c
onnectivities');
#242=(
GEOMETRIC_REPRESENTATION_CONTEXT(3)
GLOBAL_UNCERTAINTY_ASSIGNED_CONTEXT((#240))
GLOBAL_UNIT_ASSIGNED_CONTEXT((#244,#246,#247))
REPRESENTATION_CONTEXT('','3D')
);
#243=(
GEOMETRIC_REPRESENTATION_CONTEXT(3)
GLOBAL_UNCERTAINTY_ASSIGNED_CONTEXT((#241))
GLOBAL_UNIT_ASSIGNED_CONTEXT((#244,#246,#247))
REPRESENTATION_CONTEXT('','3D')
);
#244=(
LENGTH_UNIT()
NAMED_UNIT(*)
SI_UNIT(.MILLI.,.METRE.)
);
#245=(
LENGTH_UNIT()
NAMED_UNIT(*)
SI_UNIT(.CENTI.,.METRE.)
);
#246=(
NAMED_UNIT(*)
PLANE_ANGLE_UNIT()
SI_UNIT($,.RADIAN.)
);
#247=(
NAMED_UNIT(*)
SI_UNIT($,.STERADIAN.)
SOLID_ANGLE_UNIT()
);
#248=SHAPE_DEFINITION_REPRESENTATION(#249,#250);
#249=PRODUCT_DEFINITION_SHAPE('',$,#252);
#250=SHAPE_REPRESENTATION('',(#143),#242);
#251=PRODUCT_DEFINITION_CONTEXT('part definition',#256,'design');
#252=PRODUCT_DEFINITION('400-523_RF-02','220030',#253,#251);
#253=PRODUCT_DEFINITION_FORMATION('',$,#258);
#254=PRODUCT_RELATED_PRODUCT_CATEGORY('220030','220030',(#258));
#255=APPLICATION_PROTOCOL_DEFINITION('international standard',
'automotive_design',2009,#256);
#256=APPLICATION_CONTEXT(
'Core Data for Automotive Mechanical Design Process');
#257=PRODUCT_CONTEXT('part definition',#256,'mechanical');
#258=PRODUCT('400-523_RF-02','220030','Gumov\X\FD doraz',(#257));
#259=PRESENTATION_STYLE_ASSIGNMENT((#260));
#260=SURFACE_STYLE_USAGE(.BOTH.,#263);
#261=SURFACE_STYLE_RENDERING_WITH_PROPERTIES($,#267,(#262));
#262=SURFACE_STYLE_TRANSPARENT(0.);
#263=SURFACE_SIDE_STYLE('',(#264,#261));
#264=SURFACE_STYLE_FILL_AREA(#265);
#265=FILL_AREA_STYLE('',(#266));
#266=FILL_AREA_STYLE_COLOUR('',#267);
#267=COLOUR_RGB('',0.258823529411765,0.258823529411765,0.258823529411765);
ENDSEC;
END-ISO-10303-21;
