ISO-10303-21;
HEADER;
/* Generated by software containing ST-Developer
 * from STEP Tools, Inc. (www.steptools.com) 
 */

FILE_DESCRIPTION(
/* description */ (''),
/* implementation_level */ '2;1');

FILE_NAME(
/* name */ 
'D:\\VaultPracovni\\Zak\X\E1zky\\P\X2\015900ED\X0\slu\X2\0161\X0\enstv
\X\ED k profil\X2\016F\X0\m\\Speci\X\E1ln\X\ED profily\\182325\\182325.
stp',
/* time_stamp */ '2020-10-12T12:13:01+02:00',
/* author */ ('jiri.spacek'),
/* organization */ ('Alutec K&K'),
/* preprocessor_version */ 'ST-DEVELOPER v18.1',
/* originating_system */ 'Autodesk Inventor 2021',
/* authorisation */ '');

FILE_SCHEMA (('AUTOMOTIVE_DESIGN { 1 0 10303 214 3 1 1 }'));
ENDSEC;

DATA;
#10=MECHANICAL_DESIGN_GEOMETRIC_PRESENTATION_REPRESENTATION('',(#13),#601);
#11=SHAPE_REPRESENTATION_RELATIONSHIP('SRR','None',#608,#12);
#12=ADVANCED_BREP_SHAPE_REPRESENTATION('',(#14),#600);
#13=STYLED_ITEM('',(#618),#14);
#14=MANIFOLD_SOLID_BREP('T\X2\011B\X0\leso3',#343);
#15=CYLINDRICAL_SURFACE('',#372,2.);
#16=CYLINDRICAL_SURFACE('',#375,2.00000000000001);
#17=CYLINDRICAL_SURFACE('',#378,0.499999999999998);
#18=CYLINDRICAL_SURFACE('',#381,0.5);
#19=CYLINDRICAL_SURFACE('',#384,0.499999999999998);
#20=CYLINDRICAL_SURFACE('',#387,0.5);
#21=CYLINDRICAL_SURFACE('',#390,0.5);
#22=CYLINDRICAL_SURFACE('',#393,0.499999999999998);
#23=FACE_OUTER_BOUND('',#41,.T.);
#24=FACE_OUTER_BOUND('',#42,.T.);
#25=FACE_OUTER_BOUND('',#43,.T.);
#26=FACE_OUTER_BOUND('',#44,.T.);
#27=FACE_OUTER_BOUND('',#45,.T.);
#28=FACE_OUTER_BOUND('',#46,.T.);
#29=FACE_OUTER_BOUND('',#47,.T.);
#30=FACE_OUTER_BOUND('',#48,.T.);
#31=FACE_OUTER_BOUND('',#49,.T.);
#32=FACE_OUTER_BOUND('',#50,.T.);
#33=FACE_OUTER_BOUND('',#51,.T.);
#34=FACE_OUTER_BOUND('',#52,.T.);
#35=FACE_OUTER_BOUND('',#53,.T.);
#36=FACE_OUTER_BOUND('',#54,.T.);
#37=FACE_OUTER_BOUND('',#55,.T.);
#38=FACE_OUTER_BOUND('',#56,.T.);
#39=FACE_OUTER_BOUND('',#57,.T.);
#40=FACE_OUTER_BOUND('',#58,.T.);
#41=EDGE_LOOP('',(#219,#220,#221,#222,#223,#224,#225,#226,#227,#228,#229,
#230,#231,#232,#233,#234));
#42=EDGE_LOOP('',(#235,#236,#237,#238));
#43=EDGE_LOOP('',(#239,#240,#241,#242));
#44=EDGE_LOOP('',(#243,#244,#245,#246));
#45=EDGE_LOOP('',(#247,#248,#249,#250));
#46=EDGE_LOOP('',(#251,#252,#253,#254));
#47=EDGE_LOOP('',(#255,#256,#257,#258));
#48=EDGE_LOOP('',(#259,#260,#261,#262));
#49=EDGE_LOOP('',(#263,#264,#265,#266));
#50=EDGE_LOOP('',(#267,#268,#269,#270));
#51=EDGE_LOOP('',(#271,#272,#273,#274));
#52=EDGE_LOOP('',(#275,#276,#277,#278));
#53=EDGE_LOOP('',(#279,#280,#281,#282));
#54=EDGE_LOOP('',(#283,#284,#285,#286));
#55=EDGE_LOOP('',(#287,#288,#289,#290));
#56=EDGE_LOOP('',(#291,#292,#293,#294));
#57=EDGE_LOOP('',(#295,#296,#297,#298));
#58=EDGE_LOOP('',(#299,#300,#301,#302,#303,#304,#305,#306,#307,#308,#309,
#310,#311,#312,#313,#314));
#59=CIRCLE('',#364,2.);
#60=CIRCLE('',#365,2.00000000000001);
#61=CIRCLE('',#366,0.499999999999998);
#62=CIRCLE('',#367,0.5);
#63=CIRCLE('',#368,0.499999999999998);
#64=CIRCLE('',#369,0.5);
#65=CIRCLE('',#370,0.5);
#66=CIRCLE('',#371,0.499999999999998);
#67=CIRCLE('',#373,2.);
#68=CIRCLE('',#376,2.00000000000001);
#69=CIRCLE('',#379,0.499999999999998);
#70=CIRCLE('',#382,0.5);
#71=CIRCLE('',#385,0.499999999999998);
#72=CIRCLE('',#388,0.5);
#73=CIRCLE('',#391,0.5);
#74=CIRCLE('',#394,0.499999999999998);
#75=LINE('',#503,#107);
#76=LINE('',#507,#108);
#77=LINE('',#511,#109);
#78=LINE('',#515,#110);
#79=LINE('',#519,#111);
#80=LINE('',#523,#112);
#81=LINE('',#527,#113);
#82=LINE('',#531,#114);
#83=LINE('',#535,#115);
#84=LINE('',#538,#116);
#85=LINE('',#541,#117);
#86=LINE('',#542,#118);
#87=LINE('',#546,#119);
#88=LINE('',#549,#120);
#89=LINE('',#550,#121);
#90=LINE('',#554,#122);
#91=LINE('',#557,#123);
#92=LINE('',#558,#124);
#93=LINE('',#562,#125);
#94=LINE('',#565,#126);
#95=LINE('',#566,#127);
#96=LINE('',#570,#128);
#97=LINE('',#573,#129);
#98=LINE('',#574,#130);
#99=LINE('',#578,#131);
#100=LINE('',#581,#132);
#101=LINE('',#582,#133);
#102=LINE('',#586,#134);
#103=LINE('',#589,#135);
#104=LINE('',#590,#136);
#105=LINE('',#594,#137);
#106=LINE('',#596,#138);
#107=VECTOR('',#401,10.);
#108=VECTOR('',#404,10.);
#109=VECTOR('',#407,10.);
#110=VECTOR('',#410,10.);
#111=VECTOR('',#413,10.);
#112=VECTOR('',#416,10.);
#113=VECTOR('',#419,10.);
#114=VECTOR('',#422,10.);
#115=VECTOR('',#427,10.);
#116=VECTOR('',#430,10.);
#117=VECTOR('',#433,10.);
#118=VECTOR('',#434,10.);
#119=VECTOR('',#439,10.);
#120=VECTOR('',#442,10.);
#121=VECTOR('',#443,10.);
#122=VECTOR('',#448,10.);
#123=VECTOR('',#451,10.);
#124=VECTOR('',#452,10.);
#125=VECTOR('',#457,10.);
#126=VECTOR('',#460,10.);
#127=VECTOR('',#461,10.);
#128=VECTOR('',#466,10.);
#129=VECTOR('',#469,10.);
#130=VECTOR('',#470,10.);
#131=VECTOR('',#475,10.);
#132=VECTOR('',#478,10.);
#133=VECTOR('',#479,10.);
#134=VECTOR('',#484,10.);
#135=VECTOR('',#487,10.);
#136=VECTOR('',#488,10.);
#137=VECTOR('',#493,10.);
#138=VECTOR('',#496,10.);
#139=VERTEX_POINT('',#501);
#140=VERTEX_POINT('',#502);
#141=VERTEX_POINT('',#504);
#142=VERTEX_POINT('',#506);
#143=VERTEX_POINT('',#508);
#144=VERTEX_POINT('',#510);
#145=VERTEX_POINT('',#512);
#146=VERTEX_POINT('',#514);
#147=VERTEX_POINT('',#516);
#148=VERTEX_POINT('',#518);
#149=VERTEX_POINT('',#520);
#150=VERTEX_POINT('',#522);
#151=VERTEX_POINT('',#524);
#152=VERTEX_POINT('',#526);
#153=VERTEX_POINT('',#528);
#154=VERTEX_POINT('',#530);
#155=VERTEX_POINT('',#534);
#156=VERTEX_POINT('',#536);
#157=VERTEX_POINT('',#540);
#158=VERTEX_POINT('',#544);
#159=VERTEX_POINT('',#548);
#160=VERTEX_POINT('',#552);
#161=VERTEX_POINT('',#556);
#162=VERTEX_POINT('',#560);
#163=VERTEX_POINT('',#564);
#164=VERTEX_POINT('',#568);
#165=VERTEX_POINT('',#572);
#166=VERTEX_POINT('',#576);
#167=VERTEX_POINT('',#580);
#168=VERTEX_POINT('',#584);
#169=VERTEX_POINT('',#588);
#170=VERTEX_POINT('',#592);
#171=EDGE_CURVE('',#139,#140,#75,.T.);
#172=EDGE_CURVE('',#140,#141,#59,.T.);
#173=EDGE_CURVE('',#141,#142,#76,.T.);
#174=EDGE_CURVE('',#142,#143,#60,.T.);
#175=EDGE_CURVE('',#143,#144,#77,.T.);
#176=EDGE_CURVE('',#144,#145,#61,.T.);
#177=EDGE_CURVE('',#145,#146,#78,.T.);
#178=EDGE_CURVE('',#146,#147,#62,.T.);
#179=EDGE_CURVE('',#147,#148,#79,.T.);
#180=EDGE_CURVE('',#148,#149,#63,.T.);
#181=EDGE_CURVE('',#149,#150,#80,.T.);
#182=EDGE_CURVE('',#150,#151,#64,.T.);
#183=EDGE_CURVE('',#151,#152,#81,.T.);
#184=EDGE_CURVE('',#152,#153,#65,.T.);
#185=EDGE_CURVE('',#153,#154,#82,.T.);
#186=EDGE_CURVE('',#154,#139,#66,.T.);
#187=EDGE_CURVE('',#155,#140,#83,.T.);
#188=EDGE_CURVE('',#156,#155,#67,.T.);
#189=EDGE_CURVE('',#141,#156,#84,.T.);
#190=EDGE_CURVE('',#157,#156,#85,.T.);
#191=EDGE_CURVE('',#142,#157,#86,.T.);
#192=EDGE_CURVE('',#158,#157,#68,.T.);
#193=EDGE_CURVE('',#143,#158,#87,.T.);
#194=EDGE_CURVE('',#159,#158,#88,.T.);
#195=EDGE_CURVE('',#144,#159,#89,.T.);
#196=EDGE_CURVE('',#160,#159,#69,.T.);
#197=EDGE_CURVE('',#145,#160,#90,.T.);
#198=EDGE_CURVE('',#161,#160,#91,.T.);
#199=EDGE_CURVE('',#146,#161,#92,.T.);
#200=EDGE_CURVE('',#162,#161,#70,.T.);
#201=EDGE_CURVE('',#147,#162,#93,.T.);
#202=EDGE_CURVE('',#163,#162,#94,.T.);
#203=EDGE_CURVE('',#148,#163,#95,.T.);
#204=EDGE_CURVE('',#164,#163,#71,.T.);
#205=EDGE_CURVE('',#149,#164,#96,.T.);
#206=EDGE_CURVE('',#165,#164,#97,.T.);
#207=EDGE_CURVE('',#150,#165,#98,.T.);
#208=EDGE_CURVE('',#166,#165,#72,.T.);
#209=EDGE_CURVE('',#151,#166,#99,.T.);
#210=EDGE_CURVE('',#167,#166,#100,.T.);
#211=EDGE_CURVE('',#152,#167,#101,.T.);
#212=EDGE_CURVE('',#168,#167,#73,.T.);
#213=EDGE_CURVE('',#153,#168,#102,.T.);
#214=EDGE_CURVE('',#169,#168,#103,.T.);
#215=EDGE_CURVE('',#154,#169,#104,.T.);
#216=EDGE_CURVE('',#170,#169,#74,.T.);
#217=EDGE_CURVE('',#139,#170,#105,.T.);
#218=EDGE_CURVE('',#155,#170,#106,.T.);
#219=ORIENTED_EDGE('',*,*,#171,.T.);
#220=ORIENTED_EDGE('',*,*,#172,.T.);
#221=ORIENTED_EDGE('',*,*,#173,.T.);
#222=ORIENTED_EDGE('',*,*,#174,.T.);
#223=ORIENTED_EDGE('',*,*,#175,.T.);
#224=ORIENTED_EDGE('',*,*,#176,.T.);
#225=ORIENTED_EDGE('',*,*,#177,.T.);
#226=ORIENTED_EDGE('',*,*,#178,.T.);
#227=ORIENTED_EDGE('',*,*,#179,.T.);
#228=ORIENTED_EDGE('',*,*,#180,.T.);
#229=ORIENTED_EDGE('',*,*,#181,.T.);
#230=ORIENTED_EDGE('',*,*,#182,.T.);
#231=ORIENTED_EDGE('',*,*,#183,.T.);
#232=ORIENTED_EDGE('',*,*,#184,.T.);
#233=ORIENTED_EDGE('',*,*,#185,.T.);
#234=ORIENTED_EDGE('',*,*,#186,.T.);
#235=ORIENTED_EDGE('',*,*,#187,.F.);
#236=ORIENTED_EDGE('',*,*,#188,.F.);
#237=ORIENTED_EDGE('',*,*,#189,.F.);
#238=ORIENTED_EDGE('',*,*,#172,.F.);
#239=ORIENTED_EDGE('',*,*,#189,.T.);
#240=ORIENTED_EDGE('',*,*,#190,.F.);
#241=ORIENTED_EDGE('',*,*,#191,.F.);
#242=ORIENTED_EDGE('',*,*,#173,.F.);
#243=ORIENTED_EDGE('',*,*,#191,.T.);
#244=ORIENTED_EDGE('',*,*,#192,.F.);
#245=ORIENTED_EDGE('',*,*,#193,.F.);
#246=ORIENTED_EDGE('',*,*,#174,.F.);
#247=ORIENTED_EDGE('',*,*,#193,.T.);
#248=ORIENTED_EDGE('',*,*,#194,.F.);
#249=ORIENTED_EDGE('',*,*,#195,.F.);
#250=ORIENTED_EDGE('',*,*,#175,.F.);
#251=ORIENTED_EDGE('',*,*,#195,.T.);
#252=ORIENTED_EDGE('',*,*,#196,.F.);
#253=ORIENTED_EDGE('',*,*,#197,.F.);
#254=ORIENTED_EDGE('',*,*,#176,.F.);
#255=ORIENTED_EDGE('',*,*,#197,.T.);
#256=ORIENTED_EDGE('',*,*,#198,.F.);
#257=ORIENTED_EDGE('',*,*,#199,.F.);
#258=ORIENTED_EDGE('',*,*,#177,.F.);
#259=ORIENTED_EDGE('',*,*,#199,.T.);
#260=ORIENTED_EDGE('',*,*,#200,.F.);
#261=ORIENTED_EDGE('',*,*,#201,.F.);
#262=ORIENTED_EDGE('',*,*,#178,.F.);
#263=ORIENTED_EDGE('',*,*,#201,.T.);
#264=ORIENTED_EDGE('',*,*,#202,.F.);
#265=ORIENTED_EDGE('',*,*,#203,.F.);
#266=ORIENTED_EDGE('',*,*,#179,.F.);
#267=ORIENTED_EDGE('',*,*,#203,.T.);
#268=ORIENTED_EDGE('',*,*,#204,.F.);
#269=ORIENTED_EDGE('',*,*,#205,.F.);
#270=ORIENTED_EDGE('',*,*,#180,.F.);
#271=ORIENTED_EDGE('',*,*,#205,.T.);
#272=ORIENTED_EDGE('',*,*,#206,.F.);
#273=ORIENTED_EDGE('',*,*,#207,.F.);
#274=ORIENTED_EDGE('',*,*,#181,.F.);
#275=ORIENTED_EDGE('',*,*,#207,.T.);
#276=ORIENTED_EDGE('',*,*,#208,.F.);
#277=ORIENTED_EDGE('',*,*,#209,.F.);
#278=ORIENTED_EDGE('',*,*,#182,.F.);
#279=ORIENTED_EDGE('',*,*,#209,.T.);
#280=ORIENTED_EDGE('',*,*,#210,.F.);
#281=ORIENTED_EDGE('',*,*,#211,.F.);
#282=ORIENTED_EDGE('',*,*,#183,.F.);
#283=ORIENTED_EDGE('',*,*,#211,.T.);
#284=ORIENTED_EDGE('',*,*,#212,.F.);
#285=ORIENTED_EDGE('',*,*,#213,.F.);
#286=ORIENTED_EDGE('',*,*,#184,.F.);
#287=ORIENTED_EDGE('',*,*,#213,.T.);
#288=ORIENTED_EDGE('',*,*,#214,.F.);
#289=ORIENTED_EDGE('',*,*,#215,.F.);
#290=ORIENTED_EDGE('',*,*,#185,.F.);
#291=ORIENTED_EDGE('',*,*,#215,.T.);
#292=ORIENTED_EDGE('',*,*,#216,.F.);
#293=ORIENTED_EDGE('',*,*,#217,.F.);
#294=ORIENTED_EDGE('',*,*,#186,.F.);
#295=ORIENTED_EDGE('',*,*,#217,.T.);
#296=ORIENTED_EDGE('',*,*,#218,.F.);
#297=ORIENTED_EDGE('',*,*,#187,.T.);
#298=ORIENTED_EDGE('',*,*,#171,.F.);
#299=ORIENTED_EDGE('',*,*,#218,.T.);
#300=ORIENTED_EDGE('',*,*,#216,.T.);
#301=ORIENTED_EDGE('',*,*,#214,.T.);
#302=ORIENTED_EDGE('',*,*,#212,.T.);
#303=ORIENTED_EDGE('',*,*,#210,.T.);
#304=ORIENTED_EDGE('',*,*,#208,.T.);
#305=ORIENTED_EDGE('',*,*,#206,.T.);
#306=ORIENTED_EDGE('',*,*,#204,.T.);
#307=ORIENTED_EDGE('',*,*,#202,.T.);
#308=ORIENTED_EDGE('',*,*,#200,.T.);
#309=ORIENTED_EDGE('',*,*,#198,.T.);
#310=ORIENTED_EDGE('',*,*,#196,.T.);
#311=ORIENTED_EDGE('',*,*,#194,.T.);
#312=ORIENTED_EDGE('',*,*,#192,.T.);
#313=ORIENTED_EDGE('',*,*,#190,.T.);
#314=ORIENTED_EDGE('',*,*,#188,.T.);
#315=PLANE('',#363);
#316=PLANE('',#374);
#317=PLANE('',#377);
#318=PLANE('',#380);
#319=PLANE('',#383);
#320=PLANE('',#386);
#321=PLANE('',#389);
#322=PLANE('',#392);
#323=PLANE('',#395);
#324=PLANE('',#396);
#325=ADVANCED_FACE('',(#23),#315,.T.);
#326=ADVANCED_FACE('',(#24),#15,.T.);
#327=ADVANCED_FACE('',(#25),#316,.T.);
#328=ADVANCED_FACE('',(#26),#16,.T.);
#329=ADVANCED_FACE('',(#27),#317,.T.);
#330=ADVANCED_FACE('',(#28),#17,.T.);
#331=ADVANCED_FACE('',(#29),#318,.T.);
#332=ADVANCED_FACE('',(#30),#18,.T.);
#333=ADVANCED_FACE('',(#31),#319,.T.);
#334=ADVANCED_FACE('',(#32),#19,.F.);
#335=ADVANCED_FACE('',(#33),#320,.T.);
#336=ADVANCED_FACE('',(#34),#20,.F.);
#337=ADVANCED_FACE('',(#35),#321,.T.);
#338=ADVANCED_FACE('',(#36),#21,.T.);
#339=ADVANCED_FACE('',(#37),#322,.T.);
#340=ADVANCED_FACE('',(#38),#22,.T.);
#341=ADVANCED_FACE('',(#39),#323,.T.);
#342=ADVANCED_FACE('',(#40),#324,.F.);
#343=CLOSED_SHELL('',(#325,#326,#327,#328,#329,#330,#331,#332,#333,#334,
#335,#336,#337,#338,#339,#340,#341,#342));
#344=DERIVED_UNIT_ELEMENT(#346,1.);
#345=DERIVED_UNIT_ELEMENT(#603,3.);
#346=(
MASS_UNIT()
NAMED_UNIT(*)
SI_UNIT($,.GRAM.)
);
#347=DERIVED_UNIT((#344,#345));
#348=MEASURE_REPRESENTATION_ITEM('density measure',
POSITIVE_RATIO_MEASURE(2.71),#347);
#349=PROPERTY_DEFINITION_REPRESENTATION(#354,#351);
#350=PROPERTY_DEFINITION_REPRESENTATION(#355,#352);
#351=REPRESENTATION('material name',(#353),#600);
#352=REPRESENTATION('density',(#348),#600);
#353=DESCRIPTIVE_REPRESENTATION_ITEM('Hlin\X\EDk - 6061',
'Hlin\X\EDk - 6061');
#354=PROPERTY_DEFINITION('material property','material name',#610);
#355=PROPERTY_DEFINITION('material property','density of part',#610);
#356=DATE_TIME_ROLE('creation_date');
#357=APPLIED_DATE_AND_TIME_ASSIGNMENT(#358,#356,(#610));
#358=DATE_AND_TIME(#359,#360);
#359=CALENDAR_DATE(2020,12,10);
#360=LOCAL_TIME(11,57,4.,#361);
#361=COORDINATED_UNIVERSAL_TIME_OFFSET(0,0,.BEHIND.);
#362=AXIS2_PLACEMENT_3D('placement',#499,#397,#398);
#363=AXIS2_PLACEMENT_3D('',#500,#399,#400);
#364=AXIS2_PLACEMENT_3D('',#505,#402,#403);
#365=AXIS2_PLACEMENT_3D('',#509,#405,#406);
#366=AXIS2_PLACEMENT_3D('',#513,#408,#409);
#367=AXIS2_PLACEMENT_3D('',#517,#411,#412);
#368=AXIS2_PLACEMENT_3D('',#521,#414,#415);
#369=AXIS2_PLACEMENT_3D('',#525,#417,#418);
#370=AXIS2_PLACEMENT_3D('',#529,#420,#421);
#371=AXIS2_PLACEMENT_3D('',#532,#423,#424);
#372=AXIS2_PLACEMENT_3D('',#533,#425,#426);
#373=AXIS2_PLACEMENT_3D('',#537,#428,#429);
#374=AXIS2_PLACEMENT_3D('',#539,#431,#432);
#375=AXIS2_PLACEMENT_3D('',#543,#435,#436);
#376=AXIS2_PLACEMENT_3D('',#545,#437,#438);
#377=AXIS2_PLACEMENT_3D('',#547,#440,#441);
#378=AXIS2_PLACEMENT_3D('',#551,#444,#445);
#379=AXIS2_PLACEMENT_3D('',#553,#446,#447);
#380=AXIS2_PLACEMENT_3D('',#555,#449,#450);
#381=AXIS2_PLACEMENT_3D('',#559,#453,#454);
#382=AXIS2_PLACEMENT_3D('',#561,#455,#456);
#383=AXIS2_PLACEMENT_3D('',#563,#458,#459);
#384=AXIS2_PLACEMENT_3D('',#567,#462,#463);
#385=AXIS2_PLACEMENT_3D('',#569,#464,#465);
#386=AXIS2_PLACEMENT_3D('',#571,#467,#468);
#387=AXIS2_PLACEMENT_3D('',#575,#471,#472);
#388=AXIS2_PLACEMENT_3D('',#577,#473,#474);
#389=AXIS2_PLACEMENT_3D('',#579,#476,#477);
#390=AXIS2_PLACEMENT_3D('',#583,#480,#481);
#391=AXIS2_PLACEMENT_3D('',#585,#482,#483);
#392=AXIS2_PLACEMENT_3D('',#587,#485,#486);
#393=AXIS2_PLACEMENT_3D('',#591,#489,#490);
#394=AXIS2_PLACEMENT_3D('',#593,#491,#492);
#395=AXIS2_PLACEMENT_3D('',#595,#494,#495);
#396=AXIS2_PLACEMENT_3D('',#597,#497,#498);
#397=DIRECTION('axis',(0.,0.,1.));
#398=DIRECTION('refdir',(1.,0.,0.));
#399=DIRECTION('center_axis',(0.,-1.,0.));
#400=DIRECTION('ref_axis',(0.,0.,-1.));
#401=DIRECTION('',(-3.1147923746428E-16,0.,-1.));
#402=DIRECTION('center_axis',(0.,-1.,0.));
#403=DIRECTION('ref_axis',(-1.38777878078145E-16,0.,-1.));
#404=DIRECTION('',(1.,0.,-1.1686558153949E-16));
#405=DIRECTION('center_axis',(0.,-1.,0.));
#406=DIRECTION('ref_axis',(1.,0.,-1.38777878078145E-16));
#407=DIRECTION('',(1.97372982155583E-16,0.,1.));
#408=DIRECTION('center_axis',(0.,-1.,0.));
#409=DIRECTION('ref_axis',(0.,0.,1.));
#410=DIRECTION('',(-1.,0.,-8.8817841970012E-15));
#411=DIRECTION('center_axis',(0.,-1.,0.));
#412=DIRECTION('ref_axis',(-1.,0.,0.));
#413=DIRECTION('',(0.,0.,-1.));
#414=DIRECTION('center_axis',(0.,1.,0.));
#415=DIRECTION('ref_axis',(-1.,0.,0.));
#416=DIRECTION('',(-1.,0.,1.02257383847054E-16));
#417=DIRECTION('center_axis',(0.,1.,0.));
#418=DIRECTION('ref_axis',(0.,0.,1.));
#419=DIRECTION('',(2.96059473233375E-16,0.,1.));
#420=DIRECTION('center_axis',(0.,-1.,0.));
#421=DIRECTION('ref_axis',(2.77555756156288E-16,0.,1.));
#422=DIRECTION('',(-1.,0.,-1.77635683940025E-14));
#423=DIRECTION('center_axis',(0.,-1.,0.));
#424=DIRECTION('ref_axis',(-1.,0.,0.));
#425=DIRECTION('center_axis',(0.,1.,0.));
#426=DIRECTION('ref_axis',(-1.38777878078145E-16,0.,-1.));
#427=DIRECTION('',(0.,-1.,0.));
#428=DIRECTION('center_axis',(0.,1.,0.));
#429=DIRECTION('ref_axis',(-1.38777878078145E-16,0.,-1.));
#430=DIRECTION('',(0.,1.,0.));
#431=DIRECTION('center_axis',(-1.1686558153949E-16,0.,-1.));
#432=DIRECTION('ref_axis',(-1.,0.,1.1686558153949E-16));
#433=DIRECTION('',(-1.,0.,1.1686558153949E-16));
#434=DIRECTION('',(0.,1.,0.));
#435=DIRECTION('center_axis',(0.,1.,0.));
#436=DIRECTION('ref_axis',(1.,0.,-1.38777878078145E-16));
#437=DIRECTION('center_axis',(0.,1.,0.));
#438=DIRECTION('ref_axis',(1.,0.,-1.38777878078145E-16));
#439=DIRECTION('',(0.,1.,0.));
#440=DIRECTION('center_axis',(1.,0.,-1.97372982155583E-16));
#441=DIRECTION('ref_axis',(-1.97372982155583E-16,0.,-1.));
#442=DIRECTION('',(-1.97372982155583E-16,0.,-1.));
#443=DIRECTION('',(0.,1.,0.));
#444=DIRECTION('center_axis',(0.,1.,0.));
#445=DIRECTION('ref_axis',(0.,0.,1.));
#446=DIRECTION('center_axis',(0.,1.,0.));
#447=DIRECTION('ref_axis',(0.,0.,1.));
#448=DIRECTION('',(0.,1.,0.));
#449=DIRECTION('center_axis',(-8.8817841970012E-15,0.,1.));
#450=DIRECTION('ref_axis',(1.,0.,8.8817841970012E-15));
#451=DIRECTION('',(1.,0.,8.8817841970012E-15));
#452=DIRECTION('',(0.,1.,0.));
#453=DIRECTION('center_axis',(0.,1.,0.));
#454=DIRECTION('ref_axis',(-1.,0.,0.));
#455=DIRECTION('center_axis',(0.,1.,0.));
#456=DIRECTION('ref_axis',(-1.,0.,0.));
#457=DIRECTION('',(0.,1.,0.));
#458=DIRECTION('center_axis',(-1.,0.,0.));
#459=DIRECTION('ref_axis',(0.,0.,1.));
#460=DIRECTION('',(0.,0.,1.));
#461=DIRECTION('',(0.,1.,0.));
#462=DIRECTION('center_axis',(0.,1.,0.));
#463=DIRECTION('ref_axis',(-1.,0.,0.));
#464=DIRECTION('center_axis',(0.,-1.,0.));
#465=DIRECTION('ref_axis',(-1.,0.,0.));
#466=DIRECTION('',(0.,1.,0.));
#467=DIRECTION('center_axis',(1.02257383847054E-16,0.,1.));
#468=DIRECTION('ref_axis',(1.,0.,-1.02257383847054E-16));
#469=DIRECTION('',(1.,0.,-1.02257383847054E-16));
#470=DIRECTION('',(0.,1.,0.));
#471=DIRECTION('center_axis',(0.,1.,0.));
#472=DIRECTION('ref_axis',(0.,0.,1.));
#473=DIRECTION('center_axis',(0.,-1.,0.));
#474=DIRECTION('ref_axis',(0.,0.,1.));
#475=DIRECTION('',(0.,1.,0.));
#476=DIRECTION('center_axis',(1.,0.,-2.96059473233375E-16));
#477=DIRECTION('ref_axis',(-2.96059473233375E-16,0.,-1.));
#478=DIRECTION('',(-2.96059473233375E-16,0.,-1.));
#479=DIRECTION('',(0.,1.,0.));
#480=DIRECTION('center_axis',(0.,1.,0.));
#481=DIRECTION('ref_axis',(2.77555756156288E-16,0.,1.));
#482=DIRECTION('center_axis',(0.,1.,0.));
#483=DIRECTION('ref_axis',(2.77555756156288E-16,0.,1.));
#484=DIRECTION('',(0.,1.,0.));
#485=DIRECTION('center_axis',(-1.77635683940025E-14,0.,1.));
#486=DIRECTION('ref_axis',(1.,0.,1.77635683940025E-14));
#487=DIRECTION('',(1.,0.,1.77635683940025E-14));
#488=DIRECTION('',(0.,1.,0.));
#489=DIRECTION('center_axis',(0.,1.,0.));
#490=DIRECTION('ref_axis',(-1.,0.,0.));
#491=DIRECTION('center_axis',(0.,1.,0.));
#492=DIRECTION('ref_axis',(-1.,0.,0.));
#493=DIRECTION('',(0.,1.,0.));
#494=DIRECTION('center_axis',(-1.,0.,3.1147923746428E-16));
#495=DIRECTION('ref_axis',(3.1147923746428E-16,0.,1.));
#496=DIRECTION('',(3.1147923746428E-16,0.,1.));
#497=DIRECTION('center_axis',(0.,-1.,0.));
#498=DIRECTION('ref_axis',(0.,0.,-1.));
#499=CARTESIAN_POINT('',(0.,0.,0.));
#500=CARTESIAN_POINT('Origin',(11.5,490.,9.54400301503785));
#501=CARTESIAN_POINT('',(7.56339435525888E-15,490.,24.5));
#502=CARTESIAN_POINT('',(5.55111512312578E-16,490.,2.));
#503=CARTESIAN_POINT('',(5.55111512312578E-16,490.,2.));
#504=CARTESIAN_POINT('',(2.,490.,-2.77555756156289E-16));
#505=CARTESIAN_POINT('Origin',(2.,490.,2.));
#506=CARTESIAN_POINT('',(21.,490.,-2.4980018054066E-15));
#507=CARTESIAN_POINT('',(21.,490.,-2.4980018054066E-15));
#508=CARTESIAN_POINT('',(23.,490.,2.));
#509=CARTESIAN_POINT('Origin',(21.,490.,2.));
#510=CARTESIAN_POINT('',(23.,490.,24.5));
#511=CARTESIAN_POINT('',(23.,490.,24.5));
#512=CARTESIAN_POINT('',(22.5,490.,25.));
#513=CARTESIAN_POINT('Origin',(22.5,490.,24.5));
#514=CARTESIAN_POINT('',(22.,490.,25.));
#515=CARTESIAN_POINT('',(22.,490.,25.));
#516=CARTESIAN_POINT('',(21.5,490.,24.5));
#517=CARTESIAN_POINT('Origin',(22.,490.,24.5));
#518=CARTESIAN_POINT('',(21.5,490.,2.));
#519=CARTESIAN_POINT('',(21.5,490.,2.));
#520=CARTESIAN_POINT('',(21.,490.,1.5));
#521=CARTESIAN_POINT('Origin',(21.,490.,2.));
#522=CARTESIAN_POINT('',(2.,490.,1.5));
#523=CARTESIAN_POINT('',(2.,490.,1.5));
#524=CARTESIAN_POINT('',(1.5,490.,2.));
#525=CARTESIAN_POINT('Origin',(2.,490.,2.));
#526=CARTESIAN_POINT('',(1.50000000000001,490.,24.5));
#527=CARTESIAN_POINT('',(1.50000000000001,490.,24.5));
#528=CARTESIAN_POINT('',(1.00000000000001,490.,25.));
#529=CARTESIAN_POINT('Origin',(1.00000000000001,490.,24.5));
#530=CARTESIAN_POINT('',(0.500000000000008,490.,25.));
#531=CARTESIAN_POINT('',(0.500000000000008,490.,25.));
#532=CARTESIAN_POINT('Origin',(0.500000000000008,490.,24.5));
#533=CARTESIAN_POINT('Origin',(2.,0.,2.));
#534=CARTESIAN_POINT('',(5.55111512312578E-16,500.,2.));
#535=CARTESIAN_POINT('',(5.55111512312578E-16,0.,2.));
#536=CARTESIAN_POINT('',(2.,500.,-2.77555756156289E-16));
#537=CARTESIAN_POINT('Origin',(2.,500.,2.));
#538=CARTESIAN_POINT('',(2.,0.,-2.77555756156289E-16));
#539=CARTESIAN_POINT('Origin',(21.,0.,-2.4980018054066E-15));
#540=CARTESIAN_POINT('',(21.,500.,-2.4980018054066E-15));
#541=CARTESIAN_POINT('',(21.,500.,-2.4980018054066E-15));
#542=CARTESIAN_POINT('',(21.,0.,-2.4980018054066E-15));
#543=CARTESIAN_POINT('Origin',(21.,0.,2.));
#544=CARTESIAN_POINT('',(23.,500.,2.));
#545=CARTESIAN_POINT('Origin',(21.,500.,2.));
#546=CARTESIAN_POINT('',(23.,0.,2.));
#547=CARTESIAN_POINT('Origin',(23.,0.,24.5));
#548=CARTESIAN_POINT('',(23.,500.,24.5));
#549=CARTESIAN_POINT('',(23.,500.,24.5));
#550=CARTESIAN_POINT('',(23.,0.,24.5));
#551=CARTESIAN_POINT('Origin',(22.5,0.,24.5));
#552=CARTESIAN_POINT('',(22.5,500.,25.));
#553=CARTESIAN_POINT('Origin',(22.5,500.,24.5));
#554=CARTESIAN_POINT('',(22.5,0.,25.));
#555=CARTESIAN_POINT('Origin',(22.,0.,25.));
#556=CARTESIAN_POINT('',(22.,500.,25.));
#557=CARTESIAN_POINT('',(22.,500.,25.));
#558=CARTESIAN_POINT('',(22.,0.,25.));
#559=CARTESIAN_POINT('Origin',(22.,0.,24.5));
#560=CARTESIAN_POINT('',(21.5,500.,24.5));
#561=CARTESIAN_POINT('Origin',(22.,500.,24.5));
#562=CARTESIAN_POINT('',(21.5,0.,24.5));
#563=CARTESIAN_POINT('Origin',(21.5,0.,2.));
#564=CARTESIAN_POINT('',(21.5,500.,2.));
#565=CARTESIAN_POINT('',(21.5,500.,2.));
#566=CARTESIAN_POINT('',(21.5,0.,2.));
#567=CARTESIAN_POINT('Origin',(21.,0.,2.));
#568=CARTESIAN_POINT('',(21.,500.,1.5));
#569=CARTESIAN_POINT('Origin',(21.,500.,2.));
#570=CARTESIAN_POINT('',(21.,0.,1.5));
#571=CARTESIAN_POINT('Origin',(2.,0.,1.5));
#572=CARTESIAN_POINT('',(2.,500.,1.5));
#573=CARTESIAN_POINT('',(2.,500.,1.5));
#574=CARTESIAN_POINT('',(2.,0.,1.5));
#575=CARTESIAN_POINT('Origin',(2.,0.,2.));
#576=CARTESIAN_POINT('',(1.5,500.,2.));
#577=CARTESIAN_POINT('Origin',(2.,500.,2.));
#578=CARTESIAN_POINT('',(1.5,0.,2.));
#579=CARTESIAN_POINT('Origin',(1.50000000000001,0.,24.5));
#580=CARTESIAN_POINT('',(1.50000000000001,500.,24.5));
#581=CARTESIAN_POINT('',(1.50000000000001,500.,24.5));
#582=CARTESIAN_POINT('',(1.50000000000001,0.,24.5));
#583=CARTESIAN_POINT('Origin',(1.00000000000001,0.,24.5));
#584=CARTESIAN_POINT('',(1.00000000000001,500.,25.));
#585=CARTESIAN_POINT('Origin',(1.00000000000001,500.,24.5));
#586=CARTESIAN_POINT('',(1.00000000000001,0.,25.));
#587=CARTESIAN_POINT('Origin',(0.500000000000008,0.,25.));
#588=CARTESIAN_POINT('',(0.500000000000008,500.,25.));
#589=CARTESIAN_POINT('',(0.500000000000008,500.,25.));
#590=CARTESIAN_POINT('',(0.500000000000008,0.,25.));
#591=CARTESIAN_POINT('Origin',(0.500000000000008,0.,24.5));
#592=CARTESIAN_POINT('',(7.56339435525888E-15,500.,24.5));
#593=CARTESIAN_POINT('Origin',(0.500000000000008,500.,24.5));
#594=CARTESIAN_POINT('',(7.56339435525888E-15,0.,24.5));
#595=CARTESIAN_POINT('Origin',(5.55111512312578E-16,0.,2.));
#596=CARTESIAN_POINT('',(5.55111512312578E-16,500.,2.));
#597=CARTESIAN_POINT('Origin',(11.5,500.,9.54400301503785));
#598=UNCERTAINTY_MEASURE_WITH_UNIT(LENGTH_MEASURE(0.01),#602,
'DISTANCE_ACCURACY_VALUE',
'Maximum model space distance between geometric entities at asserted c
onnectivities');
#599=UNCERTAINTY_MEASURE_WITH_UNIT(LENGTH_MEASURE(0.01),#602,
'DISTANCE_ACCURACY_VALUE',
'Maximum model space distance between geometric entities at asserted c
onnectivities');
#600=(
GEOMETRIC_REPRESENTATION_CONTEXT(3)
GLOBAL_UNCERTAINTY_ASSIGNED_CONTEXT((#598))
GLOBAL_UNIT_ASSIGNED_CONTEXT((#602,#604,#605))
REPRESENTATION_CONTEXT('','3D')
);
#601=(
GEOMETRIC_REPRESENTATION_CONTEXT(3)
GLOBAL_UNCERTAINTY_ASSIGNED_CONTEXT((#599))
GLOBAL_UNIT_ASSIGNED_CONTEXT((#602,#604,#605))
REPRESENTATION_CONTEXT('','3D')
);
#602=(
LENGTH_UNIT()
NAMED_UNIT(*)
SI_UNIT(.MILLI.,.METRE.)
);
#603=(
LENGTH_UNIT()
NAMED_UNIT(*)
SI_UNIT(.CENTI.,.METRE.)
);
#604=(
NAMED_UNIT(*)
PLANE_ANGLE_UNIT()
SI_UNIT($,.RADIAN.)
);
#605=(
NAMED_UNIT(*)
SI_UNIT($,.STERADIAN.)
SOLID_ANGLE_UNIT()
);
#606=SHAPE_DEFINITION_REPRESENTATION(#607,#608);
#607=PRODUCT_DEFINITION_SHAPE('',$,#610);
#608=SHAPE_REPRESENTATION('',(#362),#600);
#609=PRODUCT_DEFINITION_CONTEXT('part definition',#614,'design');
#610=PRODUCT_DEFINITION('182325','182325',#611,#609);
#611=PRODUCT_DEFINITION_FORMATION('',$,#616);
#612=PRODUCT_RELATED_PRODUCT_CATEGORY('182325','182325',(#616));
#613=APPLICATION_PROTOCOL_DEFINITION('international standard',
'automotive_design',2009,#614);
#614=APPLICATION_CONTEXT(
'Core Data for Automotive Mechanical Design Process');
#615=PRODUCT_CONTEXT('part definition',#614,'mechanical');
#616=PRODUCT('182325','182325',$,(#615));
#617=PRESENTATION_STYLE_ASSIGNMENT((#619));
#618=PRESENTATION_STYLE_ASSIGNMENT((#620));
#619=SURFACE_STYLE_USAGE(.BOTH.,#625);
#620=SURFACE_STYLE_USAGE(.BOTH.,#626);
#621=SURFACE_STYLE_RENDERING_WITH_PROPERTIES($,#633,(#623));
#622=SURFACE_STYLE_RENDERING_WITH_PROPERTIES($,#634,(#624));
#623=SURFACE_STYLE_TRANSPARENT(0.);
#624=SURFACE_STYLE_TRANSPARENT(0.);
#625=SURFACE_SIDE_STYLE('',(#627,#621));
#626=SURFACE_SIDE_STYLE('',(#628,#622));
#627=SURFACE_STYLE_FILL_AREA(#629);
#628=SURFACE_STYLE_FILL_AREA(#630);
#629=FILL_AREA_STYLE('',(#631));
#630=FILL_AREA_STYLE('',(#632));
#631=FILL_AREA_STYLE_COLOUR('',#633);
#632=FILL_AREA_STYLE_COLOUR('',#634);
#633=COLOUR_RGB('',0.749019607843137,0.749019607843137,0.749019607843137);
#634=COLOUR_RGB('',0.811764705882353,0.8,0.823529411764706);
ENDSEC;
END-ISO-10303-21;
