ISO-10303-21;
HEADER;
/* Generated by software containing ST-Developer
 * from STEP Tools, Inc. (www.steptools.com) 
 */

FILE_DESCRIPTION(
/* description */ ('\X2\010C\X0\ep mezi \X2\0159\X0\et\X2\011B\X0\z a 
z\X\E1va\X2\017E00ED\X0\'),
/* implementation_level */ '2;1');

FILE_NAME(
/* name */ 
'D:\\VaultPracovni\\Zak\X\E1zky\\P\X2\015900ED\X0\slu\X2\0161\X0\enstv
\X\ED k profil\X2\016F\X0\m\\Modul 45 dr\X\E1\X2\017E\X0\ka 8\\700807\\
700807.stp',
/* time_stamp */ '2018-06-11T12:01:08+02:00',
/* author */ ('Kova\X2\015900ED\X0\k'),
/* organization */ ('Alutec K&K'),
/* preprocessor_version */ 'ST-DEVELOPER v16.1',
/* originating_system */ 'Autodesk Inventor 2016',
/* authorisation */ '');

FILE_SCHEMA (('AUTOMOTIVE_DESIGN { 1 0 10303 214 3 1 1 }'));
ENDSEC;

DATA;
#10=MECHANICAL_DESIGN_GEOMETRIC_PRESENTATION_REPRESENTATION('',(#13),#377);
#11=SHAPE_REPRESENTATION_RELATIONSHIP('SRR','None',#386,#12);
#12=ADVANCED_BREP_SHAPE_REPRESENTATION('',(#14),#376);
#13=STYLED_ITEM('',(#395),#14);
#14=MANIFOLD_SOLID_BREP('T\X2\011B\X0\leso1',#214);
#15=LINE('',#334,#23);
#16=LINE('',#336,#24);
#17=LINE('',#338,#25);
#18=LINE('',#343,#26);
#19=LINE('',#348,#27);
#20=LINE('',#352,#28);
#21=LINE('',#369,#29);
#22=LINE('',#370,#30);
#23=VECTOR('',#267,7.7);
#24=VECTOR('',#268,4.69041575982342);
#25=VECTOR('',#269,7.7);
#26=VECTOR('',#270,3.81575680566777);
#27=VECTOR('',#275,7.7);
#28=VECTOR('',#278,7.7);
#29=VECTOR('',#299,3.81575680566777);
#30=VECTOR('',#300,4.69041575982342);
#31=(
BOUNDED_CURVE()
B_SPLINE_CURVE(2,(#322,#323,#324),.UNSPECIFIED.,.F.,.F.)
B_SPLINE_CURVE_WITH_KNOTS((3,3),(1.08553374875002,1.19071246530886),
 .UNSPECIFIED.)
CURVE()
GEOMETRIC_REPRESENTATION_ITEM()
RATIONAL_B_SPLINE_CURVE((1.0471416398753,1.0258546260304,1.))
REPRESENTATION_ITEM('')
);
#32=(
BOUNDED_CURVE()
B_SPLINE_CURVE(2,(#328,#329,#330),.UNSPECIFIED.,.F.,.F.)
B_SPLINE_CURVE_WITH_KNOTS((3,3),(0.,0.105178716558835),.UNSPECIFIED.)
CURVE()
GEOMETRIC_REPRESENTATION_ITEM()
RATIONAL_B_SPLINE_CURVE((1.,1.02585462603041,1.04714163987532))
REPRESENTATION_ITEM('')
);
#33=(
BOUNDED_CURVE()
B_SPLINE_CURVE(2,(#340,#341,#342),.UNSPECIFIED.,.F.,.F.)
B_SPLINE_CURVE_WITH_KNOTS((3,3),(0.,0.105178716558839),.UNSPECIFIED.)
CURVE()
GEOMETRIC_REPRESENTATION_ITEM()
RATIONAL_B_SPLINE_CURVE((1.,1.0258546260304,1.0471416398753))
REPRESENTATION_ITEM('')
);
#34=(
BOUNDED_CURVE()
B_SPLINE_CURVE(2,(#357,#358,#359),.UNSPECIFIED.,.F.,.F.)
B_SPLINE_CURVE_WITH_KNOTS((3,3),(1.08553374875003,1.19071246530886),
 .UNSPECIFIED.)
CURVE()
GEOMETRIC_REPRESENTATION_ITEM()
RATIONAL_B_SPLINE_CURVE((1.04714163987532,1.02585462603041,1.))
REPRESENTATION_ITEM('')
);
#35=PLANE('',#221);
#36=PLANE('',#226);
#37=PLANE('',#236);
#38=PLANE('',#239);
#39=PLANE('',#240);
#40=PLANE('',#241);
#41=PLANE('',#242);
#42=CYLINDRICAL_SURFACE('',#219,4.);
#43=CYLINDRICAL_SURFACE('',#228,3.25);
#44=CYLINDRICAL_SURFACE('',#237,1.);
#45=FACE_BOUND('',#68,.T.);
#46=FACE_BOUND('',#70,.T.);
#47=FACE_BOUND('',#72,.T.);
#48=FACE_BOUND('',#75,.T.);
#49=FACE_BOUND('',#77,.T.);
#50=FACE_BOUND('',#80,.T.);
#51=FACE_BOUND('',#83,.T.);
#52=FACE_BOUND('',#85,.T.);
#53=FACE_OUTER_BOUND('',#67,.T.);
#54=FACE_OUTER_BOUND('',#69,.T.);
#55=FACE_OUTER_BOUND('',#71,.T.);
#56=FACE_OUTER_BOUND('',#73,.T.);
#57=FACE_OUTER_BOUND('',#74,.T.);
#58=FACE_OUTER_BOUND('',#76,.T.);
#59=FACE_OUTER_BOUND('',#78,.T.);
#60=FACE_OUTER_BOUND('',#79,.T.);
#61=FACE_OUTER_BOUND('',#81,.T.);
#62=FACE_OUTER_BOUND('',#82,.T.);
#63=FACE_OUTER_BOUND('',#84,.T.);
#64=FACE_OUTER_BOUND('',#86,.T.);
#65=FACE_OUTER_BOUND('',#87,.T.);
#66=FACE_OUTER_BOUND('',#88,.T.);
#67=EDGE_LOOP('',(#146));
#68=EDGE_LOOP('',(#147));
#69=EDGE_LOOP('',(#148));
#70=EDGE_LOOP('',(#149));
#71=EDGE_LOOP('',(#150));
#72=EDGE_LOOP('',(#151));
#73=EDGE_LOOP('',(#152,#153,#154,#155));
#74=EDGE_LOOP('',(#156,#157,#158,#159,#160,#161));
#75=EDGE_LOOP('',(#162));
#76=EDGE_LOOP('',(#163,#164,#165,#166,#167,#168,#169,#170));
#77=EDGE_LOOP('',(#171));
#78=EDGE_LOOP('',(#172,#173,#174,#175));
#79=EDGE_LOOP('',(#176));
#80=EDGE_LOOP('',(#177));
#81=EDGE_LOOP('',(#178));
#82=EDGE_LOOP('',(#179));
#83=EDGE_LOOP('',(#180));
#84=EDGE_LOOP('',(#181,#182,#183,#184,#185,#186));
#85=EDGE_LOOP('',(#187));
#86=EDGE_LOOP('',(#188,#189));
#87=EDGE_LOOP('',(#190,#191));
#88=EDGE_LOOP('',(#192,#193,#194,#195));
#89=CIRCLE('',#217,4.);
#90=CIRCLE('',#218,3.7);
#91=CIRCLE('',#220,4.);
#92=CIRCLE('',#222,3.25);
#93=CIRCLE('',#224,2.95);
#94=CIRCLE('',#225,3.25);
#95=CIRCLE('',#227,1.);
#96=CIRCLE('',#229,3.25);
#97=CIRCLE('',#230,3.25);
#98=CIRCLE('',#231,3.25);
#99=CIRCLE('',#233,2.95);
#100=CIRCLE('',#235,3.);
#101=CIRCLE('',#238,1.);
#102=VERTEX_POINT('',#309);
#103=VERTEX_POINT('',#311);
#104=VERTEX_POINT('',#314);
#105=VERTEX_POINT('',#317);
#106=VERTEX_POINT('',#320);
#107=VERTEX_POINT('',#321);
#108=VERTEX_POINT('',#325);
#109=VERTEX_POINT('',#327);
#110=VERTEX_POINT('',#333);
#111=VERTEX_POINT('',#335);
#112=VERTEX_POINT('',#337);
#113=VERTEX_POINT('',#339);
#114=VERTEX_POINT('',#344);
#115=VERTEX_POINT('',#347);
#116=VERTEX_POINT('',#349);
#117=VERTEX_POINT('',#351);
#118=VERTEX_POINT('',#356);
#119=VERTEX_POINT('',#362);
#120=VERTEX_POINT('',#366);
#121=EDGE_CURVE('',#102,#102,#89,.T.);
#122=EDGE_CURVE('',#103,#103,#90,.T.);
#123=EDGE_CURVE('',#104,#104,#91,.T.);
#124=EDGE_CURVE('',#105,#105,#92,.T.);
#125=EDGE_CURVE('',#106,#107,#31,.T.);
#126=EDGE_CURVE('',#107,#108,#93,.T.);
#127=EDGE_CURVE('',#108,#109,#32,.T.);
#128=EDGE_CURVE('',#109,#106,#94,.T.);
#129=EDGE_CURVE('',#110,#106,#15,.T.);
#130=EDGE_CURVE('',#111,#110,#16,.T.);
#131=EDGE_CURVE('',#112,#111,#17,.T.);
#132=EDGE_CURVE('',#113,#112,#33,.T.);
#133=EDGE_CURVE('',#107,#113,#18,.T.);
#134=EDGE_CURVE('',#114,#114,#95,.T.);
#135=EDGE_CURVE('',#109,#115,#19,.T.);
#136=EDGE_CURVE('',#115,#116,#96,.T.);
#137=EDGE_CURVE('',#116,#117,#20,.T.);
#138=EDGE_CURVE('',#112,#117,#97,.T.);
#139=EDGE_CURVE('',#111,#110,#98,.T.);
#140=EDGE_CURVE('',#117,#118,#34,.T.);
#141=EDGE_CURVE('',#118,#113,#99,.T.);
#142=EDGE_CURVE('',#119,#119,#100,.T.);
#143=EDGE_CURVE('',#120,#120,#101,.T.);
#144=EDGE_CURVE('',#118,#108,#21,.T.);
#145=EDGE_CURVE('',#115,#116,#22,.T.);
#146=ORIENTED_EDGE('',*,*,#121,.T.);
#147=ORIENTED_EDGE('',*,*,#122,.T.);
#148=ORIENTED_EDGE('',*,*,#123,.F.);
#149=ORIENTED_EDGE('',*,*,#121,.F.);
#150=ORIENTED_EDGE('',*,*,#122,.F.);
#151=ORIENTED_EDGE('',*,*,#124,.F.);
#152=ORIENTED_EDGE('',*,*,#125,.T.);
#153=ORIENTED_EDGE('',*,*,#126,.T.);
#154=ORIENTED_EDGE('',*,*,#127,.T.);
#155=ORIENTED_EDGE('',*,*,#128,.T.);
#156=ORIENTED_EDGE('',*,*,#125,.F.);
#157=ORIENTED_EDGE('',*,*,#129,.F.);
#158=ORIENTED_EDGE('',*,*,#130,.F.);
#159=ORIENTED_EDGE('',*,*,#131,.F.);
#160=ORIENTED_EDGE('',*,*,#132,.F.);
#161=ORIENTED_EDGE('',*,*,#133,.F.);
#162=ORIENTED_EDGE('',*,*,#134,.T.);
#163=ORIENTED_EDGE('',*,*,#128,.F.);
#164=ORIENTED_EDGE('',*,*,#135,.T.);
#165=ORIENTED_EDGE('',*,*,#136,.T.);
#166=ORIENTED_EDGE('',*,*,#137,.T.);
#167=ORIENTED_EDGE('',*,*,#138,.F.);
#168=ORIENTED_EDGE('',*,*,#131,.T.);
#169=ORIENTED_EDGE('',*,*,#139,.T.);
#170=ORIENTED_EDGE('',*,*,#129,.T.);
#171=ORIENTED_EDGE('',*,*,#124,.T.);
#172=ORIENTED_EDGE('',*,*,#140,.T.);
#173=ORIENTED_EDGE('',*,*,#141,.T.);
#174=ORIENTED_EDGE('',*,*,#132,.T.);
#175=ORIENTED_EDGE('',*,*,#138,.T.);
#176=ORIENTED_EDGE('',*,*,#142,.T.);
#177=ORIENTED_EDGE('',*,*,#123,.T.);
#178=ORIENTED_EDGE('',*,*,#142,.F.);
#179=ORIENTED_EDGE('',*,*,#134,.F.);
#180=ORIENTED_EDGE('',*,*,#143,.F.);
#181=ORIENTED_EDGE('',*,*,#127,.F.);
#182=ORIENTED_EDGE('',*,*,#144,.F.);
#183=ORIENTED_EDGE('',*,*,#140,.F.);
#184=ORIENTED_EDGE('',*,*,#137,.F.);
#185=ORIENTED_EDGE('',*,*,#145,.F.);
#186=ORIENTED_EDGE('',*,*,#135,.F.);
#187=ORIENTED_EDGE('',*,*,#143,.T.);
#188=ORIENTED_EDGE('',*,*,#145,.T.);
#189=ORIENTED_EDGE('',*,*,#136,.F.);
#190=ORIENTED_EDGE('',*,*,#139,.F.);
#191=ORIENTED_EDGE('',*,*,#130,.T.);
#192=ORIENTED_EDGE('',*,*,#126,.F.);
#193=ORIENTED_EDGE('',*,*,#133,.T.);
#194=ORIENTED_EDGE('',*,*,#141,.F.);
#195=ORIENTED_EDGE('',*,*,#144,.T.);
#196=CONICAL_SURFACE('',#216,3.85,45.);
#197=CONICAL_SURFACE('',#223,3.1,45.0000000000003);
#198=CONICAL_SURFACE('',#232,3.1,45.0000000000003);
#199=CONICAL_SURFACE('',#234,3.5,45.);
#200=ADVANCED_FACE('',(#53,#45),#196,.T.);
#201=ADVANCED_FACE('',(#54,#46),#42,.T.);
#202=ADVANCED_FACE('',(#55,#47),#35,.T.);
#203=ADVANCED_FACE('',(#56),#197,.T.);
#204=ADVANCED_FACE('',(#57,#48),#36,.F.);
#205=ADVANCED_FACE('',(#58,#49),#43,.T.);
#206=ADVANCED_FACE('',(#59),#198,.T.);
#207=ADVANCED_FACE('',(#60,#50),#199,.T.);
#208=ADVANCED_FACE('',(#61),#37,.T.);
#209=ADVANCED_FACE('',(#62,#51),#44,.F.);
#210=ADVANCED_FACE('',(#63,#52),#38,.F.);
#211=ADVANCED_FACE('',(#64),#39,.T.);
#212=ADVANCED_FACE('',(#65),#40,.T.);
#213=ADVANCED_FACE('',(#66),#41,.T.);
#214=CLOSED_SHELL('',(#200,#201,#202,#203,#204,#205,#206,#207,#208,#209,
#210,#211,#212,#213));
#215=AXIS2_PLACEMENT_3D('placement',#307,#243,#244);
#216=AXIS2_PLACEMENT_3D('',#308,#245,#246);
#217=AXIS2_PLACEMENT_3D('',#310,#247,#248);
#218=AXIS2_PLACEMENT_3D('',#312,#249,#250);
#219=AXIS2_PLACEMENT_3D('',#313,#251,#252);
#220=AXIS2_PLACEMENT_3D('',#315,#253,#254);
#221=AXIS2_PLACEMENT_3D('',#316,#255,#256);
#222=AXIS2_PLACEMENT_3D('',#318,#257,#258);
#223=AXIS2_PLACEMENT_3D('',#319,#259,#260);
#224=AXIS2_PLACEMENT_3D('',#326,#261,#262);
#225=AXIS2_PLACEMENT_3D('',#331,#263,#264);
#226=AXIS2_PLACEMENT_3D('',#332,#265,#266);
#227=AXIS2_PLACEMENT_3D('',#345,#271,#272);
#228=AXIS2_PLACEMENT_3D('',#346,#273,#274);
#229=AXIS2_PLACEMENT_3D('',#350,#276,#277);
#230=AXIS2_PLACEMENT_3D('',#353,#279,#280);
#231=AXIS2_PLACEMENT_3D('',#354,#281,#282);
#232=AXIS2_PLACEMENT_3D('',#355,#283,#284);
#233=AXIS2_PLACEMENT_3D('',#360,#285,#286);
#234=AXIS2_PLACEMENT_3D('',#361,#287,#288);
#235=AXIS2_PLACEMENT_3D('',#363,#289,#290);
#236=AXIS2_PLACEMENT_3D('',#364,#291,#292);
#237=AXIS2_PLACEMENT_3D('',#365,#293,#294);
#238=AXIS2_PLACEMENT_3D('',#367,#295,#296);
#239=AXIS2_PLACEMENT_3D('',#368,#297,#298);
#240=AXIS2_PLACEMENT_3D('',#371,#301,#302);
#241=AXIS2_PLACEMENT_3D('',#372,#303,#304);
#242=AXIS2_PLACEMENT_3D('',#373,#305,#306);
#243=DIRECTION('axis',(0.,0.,1.));
#244=DIRECTION('refdir',(1.,0.,0.));
#245=DIRECTION('center_axis',(-1.,-1.85037170770861E-16,0.));
#246=DIRECTION('ref_axis',(8.89139651756077E-17,-1.,0.));
#247=DIRECTION('center_axis',(1.,1.85037170770859E-16,0.));
#248=DIRECTION('ref_axis',(0.,-1.,0.));
#249=DIRECTION('center_axis',(-1.,-1.85037170770859E-16,0.));
#250=DIRECTION('ref_axis',(1.85037170770859E-16,-1.,0.));
#251=DIRECTION('center_axis',(1.,1.85037170770859E-16,0.));
#252=DIRECTION('ref_axis',(0.,1.,0.));
#253=DIRECTION('center_axis',(-1.,-1.85037170770859E-16,0.));
#254=DIRECTION('ref_axis',(0.,-1.,0.));
#255=DIRECTION('center_axis',(1.,1.85037170770859E-16,0.));
#256=DIRECTION('ref_axis',(0.,0.,-1.));
#257=DIRECTION('center_axis',(1.,1.85037170770859E-16,0.));
#258=DIRECTION('ref_axis',(0.,1.,0.));
#259=DIRECTION('center_axis',(-1.,-1.8503717077086E-16,0.));
#260=DIRECTION('ref_axis',(-8.80418796409734E-17,1.,0.));
#261=DIRECTION('center_axis',(-1.,-1.85037170770859E-16,0.));
#262=DIRECTION('ref_axis',(-1.85037170770859E-16,1.,0.));
#263=DIRECTION('center_axis',(1.,1.85037170770859E-16,0.));
#264=DIRECTION('ref_axis',(0.,1.,0.));
#265=DIRECTION('center_axis',(1.73472347597681E-16,-1.,0.));
#266=DIRECTION('ref_axis',(0.,0.,-1.));
#267=DIRECTION('',(1.,1.85037170770859E-16,0.));
#268=DIRECTION('',(0.,0.,-1.));
#269=DIRECTION('',(-1.,-1.85037170770859E-16,0.));
#270=DIRECTION('',(0.,0.,1.));
#271=DIRECTION('center_axis',(1.73472347597681E-16,-1.,0.));
#272=DIRECTION('ref_axis',(1.,1.73472347597681E-16,0.));
#273=DIRECTION('center_axis',(1.,1.85037170770859E-16,0.));
#274=DIRECTION('ref_axis',(0.,1.,0.));
#275=DIRECTION('',(-1.,-1.85037170770859E-16,0.));
#276=DIRECTION('center_axis',(-1.,0.,0.));
#277=DIRECTION('ref_axis',(0.,1.,0.));
#278=DIRECTION('',(1.,1.85037170770859E-16,0.));
#279=DIRECTION('center_axis',(1.,1.85037170770859E-16,0.));
#280=DIRECTION('ref_axis',(0.,1.,0.));
#281=DIRECTION('center_axis',(-1.,0.,0.));
#282=DIRECTION('ref_axis',(0.,1.,0.));
#283=DIRECTION('center_axis',(-1.,-1.8503717077086E-16,0.));
#284=DIRECTION('ref_axis',(-8.80418796409734E-17,1.,0.));
#285=DIRECTION('center_axis',(-1.,-1.85037170770859E-16,0.));
#286=DIRECTION('ref_axis',(-1.85037170770859E-16,1.,0.));
#287=DIRECTION('center_axis',(1.,1.85037170770859E-16,0.));
#288=DIRECTION('ref_axis',(7.93016446160826E-17,-1.,0.));
#289=DIRECTION('center_axis',(1.,1.85037170770859E-16,0.));
#290=DIRECTION('ref_axis',(1.85037170770859E-16,-1.,0.));
#291=DIRECTION('center_axis',(-1.,-1.85037170770859E-16,0.));
#292=DIRECTION('ref_axis',(0.,0.,1.));
#293=DIRECTION('center_axis',(1.73472347597681E-16,-1.,0.));
#294=DIRECTION('ref_axis',(1.,1.73472347597681E-16,0.));
#295=DIRECTION('center_axis',(-1.73472347597681E-16,1.,0.));
#296=DIRECTION('ref_axis',(1.,1.73472347597681E-16,0.));
#297=DIRECTION('center_axis',(-1.73472347597681E-16,1.,0.));
#298=DIRECTION('ref_axis',(0.,0.,1.));
#299=DIRECTION('',(0.,0.,-1.));
#300=DIRECTION('',(0.,0.,1.));
#301=DIRECTION('center_axis',(1.,0.,0.));
#302=DIRECTION('ref_axis',(0.,0.,-1.));
#303=DIRECTION('center_axis',(1.,0.,0.));
#304=DIRECTION('ref_axis',(0.,0.,-1.));
#305=DIRECTION('center_axis',(1.,1.85037170770859E-16,0.));
#306=DIRECTION('ref_axis',(0.,0.,-1.));
#307=CARTESIAN_POINT('',(0.,0.,0.));
#308=CARTESIAN_POINT('Origin',(16.85,3.11787632748898E-15,0.));
#309=CARTESIAN_POINT('',(16.7,4.,4.89858719658941E-16));
#310=CARTESIAN_POINT('Origin',(16.7,3.09012075187335E-15,0.));
#311=CARTESIAN_POINT('',(17.,3.7,-4.5311931568452E-16));
#312=CARTESIAN_POINT('Origin',(17.,3.14563190310461E-15,0.));
#313=CARTESIAN_POINT('Origin',(8.5,1.57281595155231E-15,0.));
#314=CARTESIAN_POINT('',(1.,4.,-4.89858719658941E-16));
#315=CARTESIAN_POINT('Origin',(1.,1.8503717077086E-16,0.));
#316=CARTESIAN_POINT('Origin',(17.,3.625,0.));
#317=CARTESIAN_POINT('',(17.,3.25,0.));
#318=CARTESIAN_POINT('Origin',(17.,3.14563190310461E-15,0.));
#319=CARTESIAN_POINT('Origin',(29.85,5.52335954751015E-15,0.));
#320=CARTESIAN_POINT('',(29.7,2.25000000000001,-2.34520787991171));
#321=CARTESIAN_POINT('',(30.,2.25000000000001,-1.90787840283389));
#322=CARTESIAN_POINT('Ctrl Pts',(29.7,2.25000000000001,-2.34520787991171));
#323=CARTESIAN_POINT('Ctrl Pts',(29.8654239573807,2.25000000000001,-2.11596258950803));
#324=CARTESIAN_POINT('Ctrl Pts',(30.,2.25000000000001,-1.90787840283389));
#325=CARTESIAN_POINT('',(30.,-2.24999999999999,-1.90787840283389));
#326=CARTESIAN_POINT('Origin',(30.,5.55111512312578E-15,0.));
#327=CARTESIAN_POINT('',(29.7,-2.24999999999999,-2.34520787991171));
#328=CARTESIAN_POINT('Ctrl Pts',(30.,-2.24999999999999,-1.90787840283389));
#329=CARTESIAN_POINT('Ctrl Pts',(29.8654239573807,-2.24999999999999,-2.11596258950804));
#330=CARTESIAN_POINT('Ctrl Pts',(29.7,-2.24999999999999,-2.34520787991171));
#331=CARTESIAN_POINT('Origin',(29.7,5.49560397189452E-15,0.));
#332=CARTESIAN_POINT('Origin',(30.,2.25000000000001,2.34520787991171));
#333=CARTESIAN_POINT('',(22.,2.25,-2.34520787991171));
#334=CARTESIAN_POINT('',(23.5,2.25,-2.34520787991171));
#335=CARTESIAN_POINT('',(22.,2.25,2.34520787991171));
#336=CARTESIAN_POINT('',(22.,2.25,2.34520787991171));
#337=CARTESIAN_POINT('',(29.7,2.25000000000001,2.34520787991171));
#338=CARTESIAN_POINT('',(23.5,2.25,2.34520787991171));
#339=CARTESIAN_POINT('',(30.,2.25000000000001,1.90787840283389));
#340=CARTESIAN_POINT('Ctrl Pts',(30.,2.25000000000001,1.90787840283389));
#341=CARTESIAN_POINT('Ctrl Pts',(29.8654239573807,2.25000000000001,2.11596258950804));
#342=CARTESIAN_POINT('Ctrl Pts',(29.7,2.25000000000001,2.34520787991171));
#343=CARTESIAN_POINT('',(30.,2.25000000000001,1.17260393995586));
#344=CARTESIAN_POINT('',(26.,2.25,0.000207879911710995));
#345=CARTESIAN_POINT('Origin',(27.,2.25000000000001,0.000207879911711117));
#346=CARTESIAN_POINT('Origin',(23.5,4.3483735131152E-15,0.));
#347=CARTESIAN_POINT('',(22.,-2.25,-2.34520787991171));
#348=CARTESIAN_POINT('',(23.5,-2.25,-2.34520787991171));
#349=CARTESIAN_POINT('',(22.,-2.25,2.34520787991171));
#350=CARTESIAN_POINT('Origin',(22.,4.07081775695891E-15,0.));
#351=CARTESIAN_POINT('',(29.7,-2.24999999999999,2.34520787991171));
#352=CARTESIAN_POINT('',(23.5,-2.25,2.34520787991171));
#353=CARTESIAN_POINT('Origin',(29.7,5.49560397189452E-15,0.));
#354=CARTESIAN_POINT('Origin',(22.,4.07081775695891E-15,0.));
#355=CARTESIAN_POINT('Origin',(29.85,5.52335954751015E-15,0.));
#356=CARTESIAN_POINT('',(30.,-2.24999999999999,1.90787840283389));
#357=CARTESIAN_POINT('Ctrl Pts',(29.7,-2.25,2.34520787991171));
#358=CARTESIAN_POINT('Ctrl Pts',(29.8654239573807,-2.24999999999999,2.11596258950805));
#359=CARTESIAN_POINT('Ctrl Pts',(30.,-2.24999999999999,1.90787840283389));
#360=CARTESIAN_POINT('Origin',(30.,5.55111512312578E-15,0.));
#361=CARTESIAN_POINT('Origin',(0.5,9.25185853854299E-17,0.));
#362=CARTESIAN_POINT('',(-1.38777878078145E-16,3.,3.67394039744206E-16));
#363=CARTESIAN_POINT('Origin',(4.16333634234434E-16,2.1570415377137E-31,
0.));
#364=CARTESIAN_POINT('Origin',(0.,2.,0.));
#365=CARTESIAN_POINT('Origin',(27.,29.8124390837628,0.000207879911711117));
#366=CARTESIAN_POINT('',(28.,-2.24999999999999,0.000207879911711117));
#367=CARTESIAN_POINT('Origin',(27.,-2.25,0.000207879911711117));
#368=CARTESIAN_POINT('Origin',(30.,-2.24999999999999,-2.34520787991171));
#369=CARTESIAN_POINT('',(30.,-2.24999999999999,-1.17260393995586));
#370=CARTESIAN_POINT('',(22.,-2.25,-2.34520787991171));
#371=CARTESIAN_POINT('Origin',(22.,-2.56322383360434,-1.59769013346082E-16));
#372=CARTESIAN_POINT('Origin',(22.,2.56322383360434,1.46454928900575E-16));
#373=CARTESIAN_POINT('Origin',(30.,1.625,0.));
#374=UNCERTAINTY_MEASURE_WITH_UNIT(LENGTH_MEASURE(0.01),#378,
'DISTANCE_ACCURACY_VALUE',
'Maximum model space distance between geometric entities at asserted c
onnectivities');
#375=UNCERTAINTY_MEASURE_WITH_UNIT(LENGTH_MEASURE(1.E-6),#378,
'DISTANCE_ACCURACY_VALUE',
'Maximum model space distance between geometric entities at asserted c
onnectivities');
#376=(
GEOMETRIC_REPRESENTATION_CONTEXT(3)
GLOBAL_UNCERTAINTY_ASSIGNED_CONTEXT((#374))
GLOBAL_UNIT_ASSIGNED_CONTEXT((#378,#381,#379))
REPRESENTATION_CONTEXT('','3D')
);
#377=(
GEOMETRIC_REPRESENTATION_CONTEXT(3)
GLOBAL_UNCERTAINTY_ASSIGNED_CONTEXT((#375))
GLOBAL_UNIT_ASSIGNED_CONTEXT((#378,#381,#379))
REPRESENTATION_CONTEXT('','3D')
);
#378=(
LENGTH_UNIT()
NAMED_UNIT(*)
SI_UNIT(.MILLI.,.METRE.)
);
#379=(
NAMED_UNIT(*)
SI_UNIT($,.STERADIAN.)
SOLID_ANGLE_UNIT()
);
#380=DIMENSIONAL_EXPONENTS(0.,0.,0.,0.,0.,0.,0.);
#381=(
CONVERSION_BASED_UNIT('degree',#383)
NAMED_UNIT(#380)
PLANE_ANGLE_UNIT()
);
#382=(
NAMED_UNIT(*)
PLANE_ANGLE_UNIT()
SI_UNIT($,.RADIAN.)
);
#383=PLANE_ANGLE_MEASURE_WITH_UNIT(PLANE_ANGLE_MEASURE(0.01745329252),#382);
#384=SHAPE_DEFINITION_REPRESENTATION(#385,#386);
#385=PRODUCT_DEFINITION_SHAPE('',$,#388);
#386=SHAPE_REPRESENTATION('',(#215),#376);
#387=PRODUCT_DEFINITION_CONTEXT('part definition',#392,'design');
#388=PRODUCT_DEFINITION('700807','700807',#389,#387);
#389=PRODUCT_DEFINITION_FORMATION('',$,#394);
#390=PRODUCT_RELATED_PRODUCT_CATEGORY('700807','700807',(#394));
#391=APPLICATION_PROTOCOL_DEFINITION('international standard',
'automotive_design',2009,#392);
#392=APPLICATION_CONTEXT(
'Core Data for Automotive Mechanical Design Process');
#393=PRODUCT_CONTEXT('part definition',#392,'mechanical');
#394=PRODUCT('700807','700807',$,(#393));
#395=PRESENTATION_STYLE_ASSIGNMENT((#396));
#396=SURFACE_STYLE_USAGE(.BOTH.,#397);
#397=SURFACE_SIDE_STYLE('',(#398));
#398=SURFACE_STYLE_FILL_AREA(#399);
#399=FILL_AREA_STYLE('',(#400));
#400=FILL_AREA_STYLE_COLOUR('',#401);
#401=COLOUR_RGB('',0.63921568627451,0.63921568627451,0.686274509803922);
ENDSEC;
END-ISO-10303-21;
