ISO-10303-21;
HEADER;
/****************************************************************
 * Generated by software with PDE/Lib inside                    *
 * PDElib Version v51a, created Mon 03/22/2010                  *
 * International Technegroup Inc. (www.iti-oh.com)              *
 ****************************************************************/
FILE_DESCRIPTION((''),'2;1');
FILE_NAME('D:\\P\X2\0159\X0\evod katalogu\\P\X2\0159\X0\evod do STEP\\P\S\askov\S\i dopravn\S\mky\\944510\\944510.ipt.stp','2010-09-05T12:28:05',(''),(''),'Autodesk Inventor 2010','Autodesk Inventor 2010','');
FILE_SCHEMA(('AUTOMOTIVE_DESIGN { 1 0 10303 214 1 1 1 1 }'));
ENDSEC;
DATA;
#5=APPLICATION_CONTEXT('automotive design');
#6=APPLICATION_PROTOCOL_DEFINITION('International Standard','automotive_design',2001,#5);
#7=PRODUCT_CONTEXT('',#5,'mechanical');
#8=PRODUCT('944510','944510',$,(#7));
#9=PRODUCT_RELATED_PRODUCT_CATEGORY('part',$,(#8));
#10=PRODUCT_DEFINITION_FORMATION('',$,#8);
#11=PRODUCT_DEFINITION_CONTEXT('part definition',#5,'design');
#12=PRODUCT_DEFINITION('',$,#10,#11);
#18=(NAMED_UNIT(*)PLANE_ANGLE_UNIT()SI_UNIT($,.RADIAN.));
#19=DIMENSIONAL_EXPONENTS(0.0,0.0,0.0,0.0,0.0,0.0,0.0);
#20=PLANE_ANGLE_MEASURE_WITH_UNIT(PLANE_ANGLE_MEASURE(0.017453292500000),#18);
#24=(CONVERSION_BASED_UNIT('DEGREE',#20)NAMED_UNIT(#19)PLANE_ANGLE_UNIT());
#28=(NAMED_UNIT(*)SI_UNIT($,.STERADIAN.)SOLID_ANGLE_UNIT());
#32=(LENGTH_UNIT()NAMED_UNIT(*)SI_UNIT(.MILLI.,.METRE.));
#34=UNCERTAINTY_MEASURE_WITH_UNIT(LENGTH_MEASURE(0.010000000000000),#32,'DISTANCE_ACCURACY_VALUE','');
#36=(GEOMETRIC_REPRESENTATION_CONTEXT(3)GLOBAL_UNCERTAINTY_ASSIGNED_CONTEXT((#34))GLOBAL_UNIT_ASSIGNED_CONTEXT((#24,#28,#32))REPRESENTATION_CONTEXT('None','None'));
#37=AXIS2_PLACEMENT_3D('',#38,#39,#40);
#38=CARTESIAN_POINT('',(0.0,0.0,0.0));
#39=DIRECTION('',(0.0,0.0,1.0));
#40=DIRECTION('',(1.0,0.0,0.0));
#41=SHAPE_REPRESENTATION('',(#37),#36);
#42=PRODUCT_DEFINITION_SHAPE('','',#12);
#43=SHAPE_DEFINITION_REPRESENTATION(#42,#41);
#49=(NAMED_UNIT(*)PLANE_ANGLE_UNIT()SI_UNIT($,.RADIAN.));
#50=DIMENSIONAL_EXPONENTS(0.0,0.0,0.0,0.0,0.0,0.0,0.0);
#51=PLANE_ANGLE_MEASURE_WITH_UNIT(PLANE_ANGLE_MEASURE(0.017453292500000),#49);
#55=(CONVERSION_BASED_UNIT('DEGREE',#51)NAMED_UNIT(#50)PLANE_ANGLE_UNIT());
#59=(NAMED_UNIT(*)SI_UNIT($,.STERADIAN.)SOLID_ANGLE_UNIT());
#63=(LENGTH_UNIT()NAMED_UNIT(*)SI_UNIT(.MILLI.,.METRE.));
#65=UNCERTAINTY_MEASURE_WITH_UNIT(LENGTH_MEASURE(0.000001000000000),#63,'DISTANCE_ACCURACY_VALUE','');
#67=(GEOMETRIC_REPRESENTATION_CONTEXT(3)GLOBAL_UNCERTAINTY_ASSIGNED_CONTEXT((#65))GLOBAL_UNIT_ASSIGNED_CONTEXT((#55,#59,#63))REPRESENTATION_CONTEXT('','3D'));
#68=CARTESIAN_POINT('',(114.750000000000000,2.104838E-014,0.0));
#69=DIRECTION('',(-1.0,-1.834282E-016,0.0));
#70=DIRECTION('',(0.0,-1.0,0.0));
#71=AXIS2_PLACEMENT_3D('',#68,#69,#70);
#72=CONICAL_SURFACE('',#71,7.249999999999988,44.999999999999886);
#73=CARTESIAN_POINT('',(114.500000000000000,7.500000000000011,9.184548E-016));
#74=VERTEX_POINT('',#73);
#75=CARTESIAN_POINT('',(114.500000000000000,2.100252E-014,0.0));
#76=DIRECTION('',(1.0,0.0,0.0));
#77=DIRECTION('',(0.0,-1.0,0.0));
#78=AXIS2_PLACEMENT_3D('',#75,#76,#77);
#79=CIRCLE('',#78,7.499999999999990);
#80=EDGE_CURVE('',#74,#74,#79,.T.);
#81=ORIENTED_EDGE('',*,*,#80,.T.);
#82=EDGE_LOOP('',(#81));
#83=FACE_OUTER_BOUND('',#82,.T.);
#84=CARTESIAN_POINT('',(115.0,7.000000000000007,-8.572244E-016));
#85=VERTEX_POINT('',#84);
#86=CARTESIAN_POINT('',(115.0,2.109424E-014,0.0));
#87=DIRECTION('',(-1.0,0.0,0.0));
#88=DIRECTION('',(0.0,-1.0,0.0));
#89=AXIS2_PLACEMENT_3D('',#86,#87,#88);
#90=CIRCLE('',#89,6.999999999999986);
#91=EDGE_CURVE('',#85,#85,#90,.T.);
#92=ORIENTED_EDGE('',*,*,#91,.T.);
#93=EDGE_LOOP('',(#92));
#94=FACE_BOUND('',#93,.T.);
#95=ADVANCED_FACE('',(#83,#94),#72,.T.);
#96=CARTESIAN_POINT('',(89.500000000000000,1.641682E-014,0.0));
#97=DIRECTION('',(1.0,1.834282E-016,0.0));
#98=DIRECTION('',(0.0,1.0,0.0));
#99=AXIS2_PLACEMENT_3D('',#96,#97,#98);
#100=CYLINDRICAL_SURFACE('',#99,7.499999999999990);
#101=CARTESIAN_POINT('',(64.0,7.500000000000004,0.0));
#102=VERTEX_POINT('',#101);
#103=CARTESIAN_POINT('',(64.0,1.173940E-014,0.0));
#104=DIRECTION('',(1.0,0.0,0.0));
#105=DIRECTION('',(0.0,1.0,0.0));
#106=AXIS2_PLACEMENT_3D('',#103,#104,#105);
#107=CIRCLE('',#106,7.499999999999992);
#108=EDGE_CURVE('',#102,#102,#107,.T.);
#109=ORIENTED_EDGE('',*,*,#108,.T.);
#110=EDGE_LOOP('',(#109));
#111=FACE_OUTER_BOUND('',#110,.T.);
#112=ORIENTED_EDGE('',*,*,#80,.F.);
#113=EDGE_LOOP('',(#112));
#114=FACE_BOUND('',#113,.T.);
#115=ADVANCED_FACE('',(#111,#114),#100,.T.);
#116=CARTESIAN_POINT('',(115.0,3.750000000000014,0.0));
#117=DIRECTION('',(1.0,0.0,0.0));
#118=DIRECTION('',(0.0,0.0,-1.0));
#119=AXIS2_PLACEMENT_3D('',#116,#117,#118);
#120=PLANE('',#119);
#121=ORIENTED_EDGE('',*,*,#91,.F.);
#122=EDGE_LOOP('',(#121));
#123=FACE_OUTER_BOUND('',#122,.T.);
#124=ADVANCED_FACE('',(#123),#120,.T.);
#125=CARTESIAN_POINT('',(63.750000000000000,1.169354E-014,0.0));
#126=DIRECTION('',(-1.0,-1.834282E-016,0.0));
#127=DIRECTION('',(0.0,-1.0,0.0));
#128=AXIS2_PLACEMENT_3D('',#125,#126,#127);
#129=CONICAL_SURFACE('',#128,8.249999999999995,45.000000000000533);
#130=CARTESIAN_POINT('',(63.500000000000007,8.500000000000011,1.040915E-015));
#131=VERTEX_POINT('',#130);
#132=CARTESIAN_POINT('',(63.500000000000007,1.164769E-014,0.0));
#133=DIRECTION('',(1.0,0.0,0.0));
#134=DIRECTION('',(0.0,-1.0,0.0));
#135=AXIS2_PLACEMENT_3D('',#132,#133,#134);
#136=CIRCLE('',#135,8.499999999999998);
#137=EDGE_CURVE('',#131,#131,#136,.T.);
#138=ORIENTED_EDGE('',*,*,#137,.T.);
#139=EDGE_LOOP('',(#138));
#140=FACE_OUTER_BOUND('',#139,.T.);
#141=CARTESIAN_POINT('',(64.0,8.000000000000005,-9.796851E-016));
#142=VERTEX_POINT('',#141);
#143=CARTESIAN_POINT('',(64.0,1.173940E-014,0.0));
#144=DIRECTION('',(-1.0,0.0,0.0));
#145=DIRECTION('',(0.0,-1.0,0.0));
#146=AXIS2_PLACEMENT_3D('',#143,#144,#145);
#147=CIRCLE('',#146,7.999999999999993);
#148=EDGE_CURVE('',#142,#142,#147,.T.);
#149=ORIENTED_EDGE('',*,*,#148,.T.);
#150=EDGE_LOOP('',(#149));
#151=FACE_BOUND('',#150,.T.);
#152=ADVANCED_FACE('',(#140,#151),#129,.T.);
#153=CARTESIAN_POINT('',(37.500000000000000,6.878556E-015,0.0));
#154=DIRECTION('',(1.0,1.834282E-016,0.0));
#155=DIRECTION('',(0.0,1.0,0.0));
#156=AXIS2_PLACEMENT_3D('',#153,#154,#155);
#157=CYLINDRICAL_SURFACE('',#156,8.499999999999998);
#158=CARTESIAN_POINT('',(11.500000000000004,8.500000000000000,-1.040915E-015));
#159=VERTEX_POINT('',#158);
#160=CARTESIAN_POINT('',(11.500000000000004,2.109424E-015,0.0));
#161=DIRECTION('',(-1.0,0.0,0.0));
#162=DIRECTION('',(0.0,-1.0,0.0));
#163=AXIS2_PLACEMENT_3D('',#160,#161,#162);
#164=CIRCLE('',#163,8.499999999999998);
#165=EDGE_CURVE('',#159,#159,#164,.T.);
#166=ORIENTED_EDGE('',*,*,#165,.F.);
#167=EDGE_LOOP('',(#166));
#168=FACE_OUTER_BOUND('',#167,.T.);
#169=CARTESIAN_POINT('',(41.500000000000000,7.612268E-015,-8.500000000000000));
#170=VERTEX_POINT('',#169);
#171=CARTESIAN_POINT('',(33.500000000000000,6.144843E-015,-8.500000000000000));
#172=VERTEX_POINT('',#171);
#173=CARTESIAN_POINT('',(41.499999999999993,5.898060E-015,-8.499999999999998));
#174=CARTESIAN_POINT('',(41.499999999999993,0.238358902766573,-8.499999999999998));
#175=CARTESIAN_POINT('',(41.468188162055128,0.479902632271104,-8.489723712308152));
#176=CARTESIAN_POINT('',(41.341665899857006,0.950310541816877,-8.450007403523209));
#177=CARTESIAN_POINT('',(41.247012322795754,1.179194370993489,-8.420619055039285));
#178=CARTESIAN_POINT('',(40.884923930466215,1.822980993290309,-8.313605303008902));
#179=CARTESIAN_POINT('',(40.535410088952105,2.194433210679952,-8.217052187013273));
#180=CARTESIAN_POINT('',(39.800119683594573,2.740662363898970,-8.050861696703775));
#181=CARTESIAN_POINT('',(39.366265881111204,2.962792017613985,-7.968461110914078));
#182=CARTESIAN_POINT('',(38.443425591445347,3.254204163284389,-7.853958378112846));
#183=CARTESIAN_POINT('',(37.954215890874153,3.323374202401993,-7.823374202401987));
#184=CARTESIAN_POINT('',(37.500000000000000,3.323374202401993,-7.823374202401987));
#185=CARTESIAN_POINT('',(37.045784109125847,3.323374202401993,-7.823374202401987));
#186=CARTESIAN_POINT('',(36.556574408554653,3.254204163284388,-7.853958378112847));
#187=CARTESIAN_POINT('',(35.633734118888803,2.962792017613987,-7.968461110914077));
#188=CARTESIAN_POINT('',(35.199880316405434,2.740662363898969,-8.050861696703773));
#189=CARTESIAN_POINT('',(34.464589911047895,2.194433210679953,-8.217052187013271));
#190=CARTESIAN_POINT('',(34.115076069533785,1.822980993290312,-8.313605303008902));
#191=CARTESIAN_POINT('',(33.752987677204246,1.179194370993492,-8.420619055039285));
#192=CARTESIAN_POINT('',(33.658334100142980,0.950310541816881,-8.450007403523209));
#193=CARTESIAN_POINT('',(33.531811837944858,0.479902632271108,-8.489723712308152));
#194=CARTESIAN_POINT('',(33.500000000000000,0.238358902766573,-8.499999999999998));
#195=CARTESIAN_POINT('',(33.500000000000000,6.869505E-015,-8.499999999999998));
#196=B_SPLINE_CURVE_WITH_KNOTS('',3,(#173,#174,#175,#176,#177,#178,#179,#180,#181,#182,#183,#184,#185,#186,#187,#188,#189,#190,#191,#192,#193,#194,#195),.UNSPECIFIED.,.F.,.U.,(4,2,2,2,2,3,2,2,2,2,4),(1.675680653533108,1.747188324363078,1.818695995193048,1.961711336852988,2.097976104115233,2.234240871377478,2.370505638639723,2.506770405901968,2.649785747561908,2.721293418391877,2.792801089221848),.UNSPECIFIED.);
#197=EDGE_CURVE('',#170,#172,#196,.T.);
#198=ORIENTED_EDGE('',*,*,#197,.T.);
#199=CARTESIAN_POINT('',(33.500000000000000,7.147061E-015,-8.499999999999998));
#200=CARTESIAN_POINT('',(33.500000000000000,-0.238358902766559,-8.499999999999998));
#201=CARTESIAN_POINT('',(33.531811837944858,-0.479902632271095,-8.489723712308150));
#202=CARTESIAN_POINT('',(33.658334100142980,-0.950310541816868,-8.450007403523207));
#203=CARTESIAN_POINT('',(33.752987677204260,-1.179194370993476,-8.420619055039285));
#204=CARTESIAN_POINT('',(34.115076069533792,-1.822980993290296,-8.313605303008901));
#205=CARTESIAN_POINT('',(34.464589911047895,-2.194433210679939,-8.217052187013273));
#206=CARTESIAN_POINT('',(35.199880316405434,-2.740662363898956,-8.050861696703775));
#207=CARTESIAN_POINT('',(35.633734118888803,-2.962792017613975,-7.968461110914077));
#208=CARTESIAN_POINT('',(36.556574408554653,-3.254204163284376,-7.853958378112847));
#209=CARTESIAN_POINT('',(37.045784109125847,-3.323374202401980,-7.823374202401987));
#210=CARTESIAN_POINT('',(37.954215890874153,-3.323374202401980,-7.823374202401987));
#211=CARTESIAN_POINT('',(38.443425591445347,-3.254204163284376,-7.853958378112847));
#212=CARTESIAN_POINT('',(39.366265881111197,-2.962792017613975,-7.968461110914077));
#213=CARTESIAN_POINT('',(39.800119683594566,-2.740662363898956,-8.050861696703773));
#214=CARTESIAN_POINT('',(40.535410088952105,-2.194433210679940,-8.217052187013271));
#215=CARTESIAN_POINT('',(40.884923930466215,-1.822980993290293,-8.313605303008902));
#216=CARTESIAN_POINT('',(41.247012322795754,-1.179194370993473,-8.420619055039285));
#217=CARTESIAN_POINT('',(41.341665899857006,-0.950310541816862,-8.450007403523209));
#218=CARTESIAN_POINT('',(41.468188162055128,-0.479902632271091,-8.489723712308152));
#219=CARTESIAN_POINT('',(41.500000000000000,-0.238358902766560,-8.499999999999998));
#220=CARTESIAN_POINT('',(41.500000000000000,6.453171E-015,-8.499999999999998));
#221=B_SPLINE_CURVE_WITH_KNOTS('',3,(#199,#200,#201,#202,#203,#204,#205,#206,#207,#208,#209,#210,#211,#212,#213,#214,#215,#216,#217,#218,#219,#220),.UNSPECIFIED.,.F.,.U.,(4,2,2,2,2,2,2,2,2,2,4),(0.558560217844369,0.630067888674339,0.701575559504309,0.844590901164249,0.980855668426494,1.117120435688739,1.253385202950984,1.389649970213228,1.532665311873168,1.604172982703138,1.675680653533108),.UNSPECIFIED.);
#222=EDGE_CURVE('',#172,#170,#221,.T.);
#223=ORIENTED_EDGE('',*,*,#222,.T.);
#224=EDGE_LOOP('',(#198,#223));
#225=FACE_BOUND('',#224,.T.);
#226=CARTESIAN_POINT('',(25.000000000000007,-2.500000000000000,8.124038404635957));
#227=VERTEX_POINT('',#226);
#228=CARTESIAN_POINT('',(22.500000000000007,4.127133E-015,8.499999999999998));
#229=VERTEX_POINT('',#228);
#230=CARTESIAN_POINT('',(25.000000000000007,-2.500000000000000,8.124038404635957));
#231=CARTESIAN_POINT('',(24.684025052634986,-2.500000000000000,8.124038404635957));
#232=CARTESIAN_POINT('',(24.348366190242583,-2.436468067245664,8.144401127737131));
#233=CARTESIAN_POINT('',(23.733031020192676,-2.180778226366558,8.216559622296176));
#234=CARTESIAN_POINT('',(23.453177912453917,-1.988711818386649,8.267166917222367));
#235=CARTESIAN_POINT('',(23.011348778339830,-1.546882684272563,8.361109346918898));
#236=CARTESIAN_POINT('',(22.819235403549875,-1.267004874272760,8.410743552903826));
#237=CARTESIAN_POINT('',(22.563510939985669,-0.651580195997888,8.480645712876964));
#238=CARTESIAN_POINT('',(22.500000000000007,-0.315888287521529,8.499999999999998));
#239=CARTESIAN_POINT('',(22.500000000000007,-7.632783E-016,8.499999999999998));
#240=B_SPLINE_CURVE_WITH_KNOTS('',3,(#230,#231,#232,#233,#234,#235,#236,#237,#238,#239),.UNSPECIFIED.,.F.,.U.,(4,2,2,2,4),(-0.758235881863859,-0.663443397654352,-0.568650913444846,-0.473884427188388,-0.379117940931929),.UNSPECIFIED.);
#241=EDGE_CURVE('',#227,#229,#240,.T.);
#242=ORIENTED_EDGE('',*,*,#241,.T.);
#243=CARTESIAN_POINT('',(25.000000000000007,2.499999999999998,8.124038404635961));
#244=VERTEX_POINT('',#243);
#245=CARTESIAN_POINT('',(22.500000000000007,-9.714451E-016,8.499999999999998));
#246=CARTESIAN_POINT('',(22.500000000000007,0.315888287521526,8.499999999999998));
#247=CARTESIAN_POINT('',(22.563510939985662,0.651580195997888,8.480645712876964));
#248=CARTESIAN_POINT('',(22.819235403549875,1.267004874272760,8.410743552903826));
#249=CARTESIAN_POINT('',(23.011348778339837,1.546882684272561,8.361109346918900));
#250=CARTESIAN_POINT('',(23.453177912453921,1.988711818386648,8.267166917222371));
#251=CARTESIAN_POINT('',(23.733031020192684,2.180778226366562,8.216559622296177));
#252=CARTESIAN_POINT('',(24.348366190242594,2.436468067245666,8.144401127737135));
#253=CARTESIAN_POINT('',(24.684025052634986,2.500000000000000,8.124038404635961));
#254=CARTESIAN_POINT('',(25.000000000000007,2.500000000000000,8.124038404635961));
#255=B_SPLINE_CURVE_WITH_KNOTS('',3,(#245,#246,#247,#248,#249,#250,#251,#252,#253,#254),.UNSPECIFIED.,.F.,.U.,(4,2,2,2,4),(-0.379117940931929,-0.284351454675471,-0.189584968419013,-0.094792484209506,0.0),.UNSPECIFIED.);
#256=EDGE_CURVE('',#229,#244,#255,.T.);
#257=ORIENTED_EDGE('',*,*,#256,.T.);
#258=CARTESIAN_POINT('',(55.000000000000007,2.500000000000001,8.124038404635961));
#259=VERTEX_POINT('',#258);
#260=CARTESIAN_POINT('',(25.000000000000007,2.499999999999997,8.124038404635961));
#261=DIRECTION('',(1.0,0.0,0.0));
#262=VECTOR('',#261,30.0);
#263=LINE('',#260,#262);
#264=EDGE_CURVE('',#244,#259,#263,.T.);
#265=ORIENTED_EDGE('',*,*,#264,.T.);
#266=CARTESIAN_POINT('',(57.500000000000007,1.054712E-014,8.499999999999998));
#267=VERTEX_POINT('',#266);
#268=CARTESIAN_POINT('',(55.000000000000007,2.500000000000000,8.124038404635961));
#269=CARTESIAN_POINT('',(55.315974947365028,2.500000000000000,8.124038404635961));
#270=CARTESIAN_POINT('',(55.651633809757435,2.436468067245664,8.144401127737137));
#271=CARTESIAN_POINT('',(56.266968979807324,2.180778226366565,8.216559622296181));
#272=CARTESIAN_POINT('',(56.546822087546090,1.988711818386648,8.267166917222371));
#273=CARTESIAN_POINT('',(56.988651221660191,1.546882684272563,8.361109346918900));
#274=CARTESIAN_POINT('',(57.180764596450146,1.267004874272760,8.410743552903830));
#275=CARTESIAN_POINT('',(57.436489060014353,0.651580195997884,8.480645712876965));
#276=CARTESIAN_POINT('',(57.500000000000014,0.315888287521528,8.499999999999998));
#277=CARTESIAN_POINT('',(57.500000000000014,0.0,8.499999999999998));
#278=B_SPLINE_CURVE_WITH_KNOTS('',3,(#268,#269,#270,#271,#272,#273,#274,#275,#276,#277),.UNSPECIFIED.,.F.,.U.,(4,2,2,2,4),(0.0,0.094792484209506,0.189584968419012,0.284351454675471,0.379117940931929),.UNSPECIFIED.);
#279=EDGE_CURVE('',#259,#267,#278,.T.);
#280=ORIENTED_EDGE('',*,*,#279,.T.);
#281=CARTESIAN_POINT('',(55.000000000000007,-2.500000000000000,8.124038404635956));
#282=VERTEX_POINT('',#281);
#283=CARTESIAN_POINT('',(57.500000000000014,-2.775558E-016,8.499999999999998));
#284=CARTESIAN_POINT('',(57.500000000000014,-0.315888287521528,8.499999999999998));
#285=CARTESIAN_POINT('',(57.436489060014353,-0.651580195997884,8.480645712876964));
#286=CARTESIAN_POINT('',(57.180764596450146,-1.267004874272760,8.410743552903826));
#287=CARTESIAN_POINT('',(56.988651221660191,-1.546882684272563,8.361109346918896));
#288=CARTESIAN_POINT('',(56.546822087546090,-1.988711818386649,8.267166917222363));
#289=CARTESIAN_POINT('',(56.266968979807324,-2.180778226366565,8.216559622296172));
#290=CARTESIAN_POINT('',(55.651633809757435,-2.436468067245665,8.144401127737130));
#291=CARTESIAN_POINT('',(55.315974947365028,-2.500000000000000,8.124038404635956));
#292=CARTESIAN_POINT('',(55.000000000000007,-2.500000000000000,8.124038404635956));
#293=B_SPLINE_CURVE_WITH_KNOTS('',3,(#283,#284,#285,#286,#287,#288,#289,#290,#291,#292),.UNSPECIFIED.,.F.,.U.,(4,2,2,2,4),(0.379117940931929,0.473884427188388,0.568650913444846,0.663443397654352,0.758235881863858),.UNSPECIFIED.);
#294=EDGE_CURVE('',#267,#282,#293,.T.);
#295=ORIENTED_EDGE('',*,*,#294,.T.);
#296=CARTESIAN_POINT('',(55.000000000000007,-2.499999999999997,8.124038404635957));
#297=DIRECTION('',(-1.0,0.0,0.0));
#298=VECTOR('',#297,30.0);
#299=LINE('',#296,#298);
#300=EDGE_CURVE('',#282,#227,#299,.T.);
#301=ORIENTED_EDGE('',*,*,#300,.T.);
#302=EDGE_LOOP('',(#242,#257,#265,#280,#295,#301));
#303=FACE_BOUND('',#302,.T.);
#304=ORIENTED_EDGE('',*,*,#137,.F.);
#305=EDGE_LOOP('',(#304));
#306=FACE_BOUND('',#305,.T.);
#307=ADVANCED_FACE('',(#168,#225,#303,#306),#157,.T.);
#308=CARTESIAN_POINT('',(64.0,8.000000000000005,0.0));
#309=DIRECTION('',(1.0,0.0,0.0));
#310=DIRECTION('',(0.0,0.0,-1.0));
#311=AXIS2_PLACEMENT_3D('',#308,#309,#310);
#312=PLANE('',#311);
#313=ORIENTED_EDGE('',*,*,#148,.F.);
#314=EDGE_LOOP('',(#313));
#315=FACE_OUTER_BOUND('',#314,.T.);
#316=ORIENTED_EDGE('',*,*,#108,.F.);
#317=EDGE_LOOP('',(#316));
#318=FACE_BOUND('',#317,.T.);
#319=ADVANCED_FACE('',(#315,#318),#312,.T.);
#320=CARTESIAN_POINT('',(11.250000000000004,2.063567E-015,0.0));
#321=DIRECTION('',(1.0,1.834282E-016,0.0));
#322=DIRECTION('',(0.0,-1.0,0.0));
#323=AXIS2_PLACEMENT_3D('',#320,#321,#322);
#324=CONICAL_SURFACE('',#323,8.250000000000000,44.999999999999787);
#325=CARTESIAN_POINT('',(11.0,8.000000000000004,9.796851E-016));
#326=VERTEX_POINT('',#325);
#327=CARTESIAN_POINT('',(11.000000000000004,2.017710E-015,0.0));
#328=DIRECTION('',(1.0,0.0,0.0));
#329=DIRECTION('',(0.0,-1.0,0.0));
#330=AXIS2_PLACEMENT_3D('',#327,#328,#329);
#331=CIRCLE('',#330,8.0);
#332=EDGE_CURVE('',#326,#326,#331,.T.);
#333=ORIENTED_EDGE('',*,*,#332,.T.);
#334=EDGE_LOOP('',(#333));
#335=FACE_OUTER_BOUND('',#334,.T.);
#336=ORIENTED_EDGE('',*,*,#165,.T.);
#337=EDGE_LOOP('',(#336));
#338=FACE_BOUND('',#337,.T.);
#339=ADVANCED_FACE('',(#335,#338),#324,.T.);
#340=CARTESIAN_POINT('',(11.0,8.000000000000004,0.0));
#341=DIRECTION('',(-1.0,0.0,0.0));
#342=DIRECTION('',(0.0,0.0,1.0));
#343=AXIS2_PLACEMENT_3D('',#340,#341,#342);
#344=PLANE('',#343);
#345=ORIENTED_EDGE('',*,*,#332,.F.);
#346=EDGE_LOOP('',(#345));
#347=FACE_OUTER_BOUND('',#346,.T.);
#348=CARTESIAN_POINT('',(11.0,7.500000000000002,0.0));
#349=VERTEX_POINT('',#348);
#350=CARTESIAN_POINT('',(11.000000000000004,2.017710E-015,0.0));
#351=DIRECTION('',(1.0,0.0,0.0));
#352=DIRECTION('',(0.0,1.0,0.0));
#353=AXIS2_PLACEMENT_3D('',#350,#351,#352);
#354=CIRCLE('',#353,7.500000000000000);
#355=EDGE_CURVE('',#349,#349,#354,.T.);
#356=ORIENTED_EDGE('',*,*,#355,.T.);
#357=EDGE_LOOP('',(#356));
#358=FACE_BOUND('',#357,.T.);
#359=ADVANCED_FACE('',(#347,#358),#344,.T.);
#360=CARTESIAN_POINT('',(0.250000000000001,4.585704E-017,0.0));
#361=DIRECTION('',(1.0,1.834282E-016,0.0));
#362=DIRECTION('',(0.0,-1.0,0.0));
#363=AXIS2_PLACEMENT_3D('',#360,#361,#362);
#364=CONICAL_SURFACE('',#363,7.250000000000001,44.999999999999964);
#365=CARTESIAN_POINT('',(-5.901077E-016,7.000000000000001,8.572244E-016));
#366=VERTEX_POINT('',#365);
#367=CARTESIAN_POINT('',(6.938894E-016,1.386670E-031,0.0));
#368=DIRECTION('',(1.0,0.0,0.0));
#369=DIRECTION('',(0.0,-1.0,0.0));
#370=AXIS2_PLACEMENT_3D('',#367,#368,#369);
#371=CIRCLE('',#370,7.000000000000001);
#372=EDGE_CURVE('',#366,#366,#371,.T.);
#373=ORIENTED_EDGE('',*,*,#372,.T.);
#374=EDGE_LOOP('',(#373));
#375=FACE_OUTER_BOUND('',#374,.T.);
#376=CARTESIAN_POINT('',(0.500000000000000,7.500000000000001,-9.184548E-016));
#377=VERTEX_POINT('',#376);
#378=CARTESIAN_POINT('',(0.500000000000000,9.171408E-017,0.0));
#379=DIRECTION('',(-1.0,0.0,0.0));
#380=DIRECTION('',(0.0,-1.0,0.0));
#381=AXIS2_PLACEMENT_3D('',#378,#379,#380);
#382=CIRCLE('',#381,7.500000000000001);
#383=EDGE_CURVE('',#377,#377,#382,.T.);
#384=ORIENTED_EDGE('',*,*,#383,.T.);
#385=EDGE_LOOP('',(#384));
#386=FACE_BOUND('',#385,.T.);
#387=ADVANCED_FACE('',(#375,#386),#364,.T.);
#388=CARTESIAN_POINT('',(5.500000000000002,1.008855E-015,0.0));
#389=DIRECTION('',(1.0,1.834282E-016,0.0));
#390=DIRECTION('',(0.0,1.0,0.0));
#391=AXIS2_PLACEMENT_3D('',#388,#389,#390);
#392=CYLINDRICAL_SURFACE('',#391,7.500000000000001);
#393=ORIENTED_EDGE('',*,*,#355,.F.);
#394=EDGE_LOOP('',(#393));
#395=FACE_OUTER_BOUND('',#394,.T.);
#396=ORIENTED_EDGE('',*,*,#383,.F.);
#397=EDGE_LOOP('',(#396));
#398=FACE_BOUND('',#397,.T.);
#399=ADVANCED_FACE('',(#395,#398),#392,.T.);
#400=CARTESIAN_POINT('',(0.0,3.750000000000000,0.0));
#401=DIRECTION('',(-1.0,0.0,0.0));
#402=DIRECTION('',(0.0,0.0,1.0));
#403=AXIS2_PLACEMENT_3D('',#400,#401,#402);
#404=PLANE('',#403);
#405=ORIENTED_EDGE('',*,*,#372,.F.);
#406=EDGE_LOOP('',(#405));
#407=FACE_OUTER_BOUND('',#406,.T.);
#408=ADVANCED_FACE('',(#407),#404,.T.);
#409=CARTESIAN_POINT('',(37.500000000000000,7.017334E-015,-6.500000000000002));
#410=DIRECTION('',(1.272788E-032,-6.938894E-017,-1.0));
#411=DIRECTION('',(0.0,1.0,0.0));
#412=AXIS2_PLACEMENT_3D('',#409,#410,#411);
#413=CONICAL_SURFACE('',#412,2.000000000000000,45.000000000000007);
#414=ORIENTED_EDGE('',*,*,#222,.F.);
#415=ORIENTED_EDGE('',*,*,#197,.F.);
#416=EDGE_LOOP('',(#414,#415));
#417=FACE_OUTER_BOUND('',#416,.T.);
#418=ADVANCED_FACE('',(#417),#413,.F.);
#419=CARTESIAN_POINT('',(55.000000000000007,0.0,8.499999999999998));
#420=DIRECTION('',(0.0,0.0,-1.0));
#421=DIRECTION('',(0.0,-1.0,0.0));
#422=AXIS2_PLACEMENT_3D('',#419,#420,#421);
#423=CYLINDRICAL_SURFACE('',#422,2.500000000000000);
#424=ORIENTED_EDGE('',*,*,#279,.F.);
#425=CARTESIAN_POINT('',(55.000000000000007,2.500000000000001,5.599999999999998));
#426=VERTEX_POINT('',#425);
#427=CARTESIAN_POINT('',(55.000000000000007,2.500000000000001,8.124038404635961));
#428=DIRECTION('',(0.0,0.0,-1.0));
#429=VECTOR('',#428,2.524038404635963);
#430=LINE('',#427,#429);
#431=EDGE_CURVE('',#259,#426,#430,.T.);
#432=ORIENTED_EDGE('',*,*,#431,.T.);
#433=CARTESIAN_POINT('',(55.000000000000007,-2.500000000000000,5.599999999999998));
#434=VERTEX_POINT('',#433);
#435=CARTESIAN_POINT('',(55.000000000000007,0.0,5.599999999999998));
#436=DIRECTION('',(0.0,0.0,1.0));
#437=DIRECTION('',(0.0,-1.0,0.0));
#438=AXIS2_PLACEMENT_3D('',#435,#436,#437);
#439=CIRCLE('',#438,2.500000000000000);
#440=EDGE_CURVE('',#434,#426,#439,.T.);
#441=ORIENTED_EDGE('',*,*,#440,.F.);
#442=CARTESIAN_POINT('',(55.000000000000007,-2.500000000000000,8.124038404635956));
#443=DIRECTION('',(0.0,0.0,-1.0));
#444=VECTOR('',#443,2.524038404635958);
#445=LINE('',#442,#444);
#446=EDGE_CURVE('',#282,#434,#445,.T.);
#447=ORIENTED_EDGE('',*,*,#446,.F.);
#448=ORIENTED_EDGE('',*,*,#294,.F.);
#449=EDGE_LOOP('',(#424,#432,#441,#447,#448));
#450=FACE_OUTER_BOUND('',#449,.T.);
#451=ADVANCED_FACE('',(#450),#423,.F.);
#452=CARTESIAN_POINT('',(25.000000000000007,-2.500000000000000,8.499999999999998));
#453=DIRECTION('',(0.0,-1.0,0.0));
#454=DIRECTION('',(0.0,0.0,-1.0));
#455=AXIS2_PLACEMENT_3D('',#452,#453,#454);
#456=PLANE('',#455);
#457=ORIENTED_EDGE('',*,*,#300,.F.);
#458=ORIENTED_EDGE('',*,*,#446,.T.);
#459=CARTESIAN_POINT('',(25.000000000000007,-2.500000000000000,5.599999999999998));
#460=VERTEX_POINT('',#459);
#461=CARTESIAN_POINT('',(25.000000000000007,-2.500000000000000,5.599999999999998));
#462=DIRECTION('',(1.0,0.0,0.0));
#463=VECTOR('',#462,30.0);
#464=LINE('',#461,#463);
#465=EDGE_CURVE('',#460,#434,#464,.T.);
#466=ORIENTED_EDGE('',*,*,#465,.F.);
#467=CARTESIAN_POINT('',(25.000000000000007,-2.500000000000000,8.124038404635957));
#468=DIRECTION('',(0.0,0.0,-1.0));
#469=VECTOR('',#468,2.524038404635959);
#470=LINE('',#467,#469);
#471=EDGE_CURVE('',#227,#460,#470,.T.);
#472=ORIENTED_EDGE('',*,*,#471,.F.);
#473=EDGE_LOOP('',(#457,#458,#466,#472));
#474=FACE_OUTER_BOUND('',#473,.T.);
#475=ADVANCED_FACE('',(#474),#456,.F.);
#476=CARTESIAN_POINT('',(55.000000000000007,2.500000000000001,8.499999999999998));
#477=DIRECTION('',(0.0,1.0,0.0));
#478=DIRECTION('',(0.0,0.0,1.0));
#479=AXIS2_PLACEMENT_3D('',#476,#477,#478);
#480=PLANE('',#479);
#481=ORIENTED_EDGE('',*,*,#264,.F.);
#482=CARTESIAN_POINT('',(25.000000000000007,2.499999999999997,5.599999999999998));
#483=VERTEX_POINT('',#482);
#484=CARTESIAN_POINT('',(25.000000000000007,2.499999999999997,8.124038404635961));
#485=DIRECTION('',(0.0,0.0,-1.0));
#486=VECTOR('',#485,2.524038404635963);
#487=LINE('',#484,#486);
#488=EDGE_CURVE('',#244,#483,#487,.T.);
#489=ORIENTED_EDGE('',*,*,#488,.T.);
#490=CARTESIAN_POINT('',(55.000000000000007,2.500000000000001,5.599999999999998));
#491=DIRECTION('',(-1.0,0.0,0.0));
#492=VECTOR('',#491,30.0);
#493=LINE('',#490,#492);
#494=EDGE_CURVE('',#426,#483,#493,.T.);
#495=ORIENTED_EDGE('',*,*,#494,.F.);
#496=ORIENTED_EDGE('',*,*,#431,.F.);
#497=EDGE_LOOP('',(#481,#489,#495,#496));
#498=FACE_OUTER_BOUND('',#497,.T.);
#499=ADVANCED_FACE('',(#498),#480,.F.);
#500=CARTESIAN_POINT('',(25.000000000000007,-3.725306E-016,8.499999999999998));
#501=DIRECTION('',(0.0,0.0,-1.0));
#502=DIRECTION('',(0.0,1.0,0.0));
#503=AXIS2_PLACEMENT_3D('',#500,#501,#502);
#504=CYLINDRICAL_SURFACE('',#503,2.500000000000000);
#505=ORIENTED_EDGE('',*,*,#256,.F.);
#506=ORIENTED_EDGE('',*,*,#241,.F.);
#507=ORIENTED_EDGE('',*,*,#471,.T.);
#508=CARTESIAN_POINT('',(25.000000000000007,-3.725306E-016,5.599999999999998));
#509=DIRECTION('',(0.0,0.0,1.0));
#510=DIRECTION('',(0.0,1.0,0.0));
#511=AXIS2_PLACEMENT_3D('',#508,#509,#510);
#512=CIRCLE('',#511,2.500000000000000);
#513=EDGE_CURVE('',#483,#460,#512,.T.);
#514=ORIENTED_EDGE('',*,*,#513,.F.);
#515=ORIENTED_EDGE('',*,*,#488,.F.);
#516=EDGE_LOOP('',(#505,#506,#507,#514,#515));
#517=FACE_OUTER_BOUND('',#516,.T.);
#518=ADVANCED_FACE('',(#517),#504,.F.);
#519=CARTESIAN_POINT('',(40.000000000000007,-7.095951E-016,5.599999999999998));
#520=DIRECTION('',(0.0,0.0,1.0));
#521=DIRECTION('',(1.0,0.0,0.0));
#522=AXIS2_PLACEMENT_3D('',#519,#520,#521);
#523=PLANE('',#522);
#524=ORIENTED_EDGE('',*,*,#440,.T.);
#525=ORIENTED_EDGE('',*,*,#494,.T.);
#526=ORIENTED_EDGE('',*,*,#513,.T.);
#527=ORIENTED_EDGE('',*,*,#465,.T.);
#528=EDGE_LOOP('',(#524,#525,#526,#527));
#529=FACE_OUTER_BOUND('',#528,.T.);
#530=ADVANCED_FACE('',(#529),#523,.T.);
#531=CLOSED_SHELL('',(#95,#115,#124,#152,#307,#319,#339,#359,#387,#399,#408,#418,#451,#475,#499,#518,#530));
#532=MANIFOLD_SOLID_BREP('T\X2\011B\X0\leso1',#531);
#533=COLOUR_RGB('Kov-Ocel',0.639216005802155,0.639216005802155,0.686275005340576);
#534=FILL_AREA_STYLE_COLOUR('Kov-Ocel',#533);
#535=FILL_AREA_STYLE('Kov-Ocel',(#534));
#536=SURFACE_STYLE_FILL_AREA(#535);
#537=SURFACE_SIDE_STYLE('Kov-Ocel',(#536));
#538=SURFACE_STYLE_USAGE(.BOTH.,#537);
#539=PRESENTATION_STYLE_ASSIGNMENT((#538));
#540=STYLED_ITEM('',(#539),#532);
#541=MECHANICAL_DESIGN_GEOMETRIC_PRESENTATION_REPRESENTATION('',(#540),#36);
#542=ADVANCED_BREP_SHAPE_REPRESENTATION('ABSR',(#532),#36);
#543=SHAPE_REPRESENTATION_RELATIONSHIP('SRR','None',#542,#41);
ENDSEC;
END-ISO-10303-21;
