ISO-10303-21;
HEADER;
/* Generated by software containing ST-Developer
 * from STEP Tools, Inc. (www.steptools.com) 
 */

FILE_DESCRIPTION(
/* description */ (''),
/* implementation_level */ '2;1');

FILE_NAME(
/* name */ 'D:\\VaultPracovni\\Zak\X\E1zky\\2013\\AlutecKK\\stp\\90606
5.stp',
/* time_stamp */ '2013-12-12T17:58:51+01:00',
/* author */ ('VeronikaF'),
/* organization */ (''),
/* preprocessor_version */ 'ST-DEVELOPER v15.2',
/* originating_system */ 'Autodesk Inventor 2014',
/* authorisation */ '');

FILE_SCHEMA (('AUTOMOTIVE_DESIGN { 1 0 10303 214 3 1 1 }'));
ENDSEC;

DATA;
#10=ITEM_DEFINED_TRANSFORMATION($,$,#266,#310);
#11=ITEM_DEFINED_TRANSFORMATION($,$,#266,#311);
#12=ITEM_DEFINED_TRANSFORMATION($,$,#284,#312);
#13=(
REPRESENTATION_RELATIONSHIP($,$,#495,#497)
REPRESENTATION_RELATIONSHIP_WITH_TRANSFORMATION(#10)
SHAPE_REPRESENTATION_RELATIONSHIP()
);
#14=(
REPRESENTATION_RELATIONSHIP($,$,#495,#497)
REPRESENTATION_RELATIONSHIP_WITH_TRANSFORMATION(#11)
SHAPE_REPRESENTATION_RELATIONSHIP()
);
#15=(
REPRESENTATION_RELATIONSHIP($,$,#496,#497)
REPRESENTATION_RELATIONSHIP_WITH_TRANSFORMATION(#12)
SHAPE_REPRESENTATION_RELATIONSHIP()
);
#16=CONTEXT_DEPENDENT_SHAPE_REPRESENTATION(#13,#492);
#17=CONTEXT_DEPENDENT_SHAPE_REPRESENTATION(#14,#493);
#18=CONTEXT_DEPENDENT_SHAPE_REPRESENTATION(#15,#494);
#19=NEXT_ASSEMBLY_USAGE_OCCURRENCE('65-\X2\010D\X0\ep I:1',$,$,#501,#499,
$);
#20=NEXT_ASSEMBLY_USAGE_OCCURRENCE('65-\X2\010D\X0\ep I:2',$,$,#501,#499,
$);
#21=NEXT_ASSEMBLY_USAGE_OCCURRENCE('Trubka_d65_001:1',$,$,#501,#500,$);
#22=SHAPE_REPRESENTATION_RELATIONSHIP('SRR','None',#495,#24);
#23=SHAPE_REPRESENTATION_RELATIONSHIP('SRR','None',#496,#25);
#24=ADVANCED_BREP_SHAPE_REPRESENTATION($,(#264),#477);
#25=ADVANCED_BREP_SHAPE_REPRESENTATION($,(#265),#478);
#26=STYLED_ITEM($,(#511),#264);
#27=STYLED_ITEM($,(#511),#250);
#28=STYLED_ITEM($,(#511),#251);
#29=STYLED_ITEM($,(#511),#252);
#30=STYLED_ITEM($,(#511),#253);
#31=STYLED_ITEM($,(#511),#254);
#32=STYLED_ITEM($,(#511),#255);
#33=STYLED_ITEM($,(#511),#256);
#34=STYLED_ITEM($,(#511),#257);
#35=STYLED_ITEM($,(#511),#258);
#36=STYLED_ITEM($,(#511),#259);
#37=STYLED_ITEM($,(#511),#260);
#38=STYLED_ITEM($,(#511),#261);
#39=STYLED_ITEM($,(#511),#265);
#40=CYLINDRICAL_SURFACE($,#272,12.5);
#41=CYLINDRICAL_SURFACE($,#277,10.);
#42=CYLINDRICAL_SURFACE($,#281,29.5);
#43=CYLINDRICAL_SURFACE($,#290,32.5);
#44=CYLINDRICAL_SURFACE($,#294,29.5);
#45=CYLINDRICAL_SURFACE($,#301,29.5000000000001);
#46=CYLINDRICAL_SURFACE($,#308,28.5);
#47=PLANE($,#270);
#48=PLANE($,#278);
#49=PLANE($,#279);
#50=PLANE($,#283);
#51=PLANE($,#288);
#52=PLANE($,#299);
#53=PLANE($,#304);
#54=PLANE($,#306);
#55=FACE_BOUND($,#96,.T.);
#56=FACE_BOUND($,#97,.T.);
#57=FACE_BOUND($,#98,.T.);
#58=FACE_BOUND($,#100,.T.);
#59=FACE_BOUND($,#102,.T.);
#60=FACE_BOUND($,#104,.T.);
#61=FACE_BOUND($,#107,.T.);
#62=FACE_BOUND($,#109,.T.);
#63=FACE_BOUND($,#112,.T.);
#64=FACE_BOUND($,#113,.T.);
#65=FACE_BOUND($,#114,.T.);
#66=FACE_BOUND($,#116,.T.);
#67=FACE_BOUND($,#118,.T.);
#68=FACE_BOUND($,#120,.T.);
#69=FACE_BOUND($,#122,.T.);
#70=FACE_BOUND($,#124,.T.);
#71=FACE_BOUND($,#126,.T.);
#72=FACE_BOUND($,#128,.T.);
#73=FACE_BOUND($,#130,.T.);
#74=FACE_BOUND($,#131,.T.);
#75=FACE_BOUND($,#132,.T.);
#76=FACE_BOUND($,#134,.T.);
#77=FACE_OUTER_BOUND($,#95,.T.);
#78=FACE_OUTER_BOUND($,#99,.T.);
#79=FACE_OUTER_BOUND($,#101,.T.);
#80=FACE_OUTER_BOUND($,#103,.T.);
#81=FACE_OUTER_BOUND($,#105,.T.);
#82=FACE_OUTER_BOUND($,#106,.T.);
#83=FACE_OUTER_BOUND($,#108,.T.);
#84=FACE_OUTER_BOUND($,#110,.T.);
#85=FACE_OUTER_BOUND($,#111,.T.);
#86=FACE_OUTER_BOUND($,#115,.T.);
#87=FACE_OUTER_BOUND($,#117,.T.);
#88=FACE_OUTER_BOUND($,#119,.T.);
#89=FACE_OUTER_BOUND($,#121,.T.);
#90=FACE_OUTER_BOUND($,#123,.T.);
#91=FACE_OUTER_BOUND($,#125,.T.);
#92=FACE_OUTER_BOUND($,#127,.T.);
#93=FACE_OUTER_BOUND($,#129,.T.);
#94=FACE_OUTER_BOUND($,#133,.T.);
#95=EDGE_LOOP($,(#195));
#96=EDGE_LOOP($,(#196));
#97=EDGE_LOOP($,(#197));
#98=EDGE_LOOP($,(#198));
#99=EDGE_LOOP($,(#199));
#100=EDGE_LOOP($,(#200));
#101=EDGE_LOOP($,(#201));
#102=EDGE_LOOP($,(#202));
#103=EDGE_LOOP($,(#203));
#104=EDGE_LOOP($,(#204));
#105=EDGE_LOOP($,(#205));
#106=EDGE_LOOP($,(#206));
#107=EDGE_LOOP($,(#207));
#108=EDGE_LOOP($,(#208));
#109=EDGE_LOOP($,(#209));
#110=EDGE_LOOP($,(#210));
#111=EDGE_LOOP($,(#211));
#112=EDGE_LOOP($,(#212));
#113=EDGE_LOOP($,(#213));
#114=EDGE_LOOP($,(#214));
#115=EDGE_LOOP($,(#215));
#116=EDGE_LOOP($,(#216));
#117=EDGE_LOOP($,(#217));
#118=EDGE_LOOP($,(#218));
#119=EDGE_LOOP($,(#219));
#120=EDGE_LOOP($,(#220));
#121=EDGE_LOOP($,(#221));
#122=EDGE_LOOP($,(#222));
#123=EDGE_LOOP($,(#223));
#124=EDGE_LOOP($,(#224));
#125=EDGE_LOOP($,(#225));
#126=EDGE_LOOP($,(#226));
#127=EDGE_LOOP($,(#227));
#128=EDGE_LOOP($,(#228));
#129=EDGE_LOOP($,(#229));
#130=EDGE_LOOP($,(#230));
#131=EDGE_LOOP($,(#231));
#132=EDGE_LOOP($,(#232));
#133=EDGE_LOOP($,(#233));
#134=EDGE_LOOP($,(#234));
#135=CIRCLE($,#268,12.);
#136=CIRCLE($,#269,12.5);
#137=CIRCLE($,#271,10.);
#138=CIRCLE($,#273,12.5);
#139=CIRCLE($,#275,9.);
#140=CIRCLE($,#276,10.);
#141=CIRCLE($,#280,29.5);
#142=CIRCLE($,#282,29.5);
#143=CIRCLE($,#286,32.5);
#144=CIRCLE($,#287,32.);
#145=CIRCLE($,#289,30.);
#146=CIRCLE($,#291,32.5);
#147=CIRCLE($,#293,29.5);
#148=CIRCLE($,#295,29.5);
#149=CIRCLE($,#297,29.5000000000001);
#150=CIRCLE($,#298,30.0000000000001);
#151=CIRCLE($,#300,32.);
#152=CIRCLE($,#302,29.5000000000001);
#153=CIRCLE($,#305,28.5);
#154=CIRCLE($,#307,28.5);
#155=VERTEX_POINT($,#409);
#156=VERTEX_POINT($,#411);
#157=VERTEX_POINT($,#414);
#158=VERTEX_POINT($,#417);
#159=VERTEX_POINT($,#420);
#160=VERTEX_POINT($,#422);
#161=VERTEX_POINT($,#427);
#162=VERTEX_POINT($,#430);
#163=VERTEX_POINT($,#435);
#164=VERTEX_POINT($,#437);
#165=VERTEX_POINT($,#440);
#166=VERTEX_POINT($,#443);
#167=VERTEX_POINT($,#446);
#168=VERTEX_POINT($,#449);
#169=VERTEX_POINT($,#452);
#170=VERTEX_POINT($,#454);
#171=VERTEX_POINT($,#457);
#172=VERTEX_POINT($,#460);
#173=VERTEX_POINT($,#464);
#174=VERTEX_POINT($,#467);
#175=EDGE_CURVE($,#155,#155,#135,.T.);
#176=EDGE_CURVE($,#156,#156,#136,.T.);
#177=EDGE_CURVE($,#157,#157,#137,.T.);
#178=EDGE_CURVE($,#158,#158,#138,.T.);
#179=EDGE_CURVE($,#159,#159,#139,.T.);
#180=EDGE_CURVE($,#160,#160,#140,.T.);
#181=EDGE_CURVE($,#161,#161,#141,.T.);
#182=EDGE_CURVE($,#162,#162,#142,.T.);
#183=EDGE_CURVE($,#163,#163,#143,.T.);
#184=EDGE_CURVE($,#164,#164,#144,.T.);
#185=EDGE_CURVE($,#165,#165,#145,.T.);
#186=EDGE_CURVE($,#166,#166,#146,.T.);
#187=EDGE_CURVE($,#167,#167,#147,.T.);
#188=EDGE_CURVE($,#168,#168,#148,.T.);
#189=EDGE_CURVE($,#169,#169,#149,.T.);
#190=EDGE_CURVE($,#170,#170,#150,.T.);
#191=EDGE_CURVE($,#171,#171,#151,.T.);
#192=EDGE_CURVE($,#172,#172,#152,.T.);
#193=EDGE_CURVE($,#173,#173,#153,.T.);
#194=EDGE_CURVE($,#174,#174,#154,.T.);
#195=ORIENTED_EDGE($,*,*,#175,.T.);
#196=ORIENTED_EDGE($,*,*,#176,.T.);
#197=ORIENTED_EDGE($,*,*,#177,.T.);
#198=ORIENTED_EDGE($,*,*,#175,.F.);
#199=ORIENTED_EDGE($,*,*,#178,.F.);
#200=ORIENTED_EDGE($,*,*,#176,.F.);
#201=ORIENTED_EDGE($,*,*,#179,.T.);
#202=ORIENTED_EDGE($,*,*,#180,.T.);
#203=ORIENTED_EDGE($,*,*,#177,.F.);
#204=ORIENTED_EDGE($,*,*,#180,.F.);
#205=ORIENTED_EDGE($,*,*,#179,.F.);
#206=ORIENTED_EDGE($,*,*,#181,.F.);
#207=ORIENTED_EDGE($,*,*,#178,.T.);
#208=ORIENTED_EDGE($,*,*,#182,.F.);
#209=ORIENTED_EDGE($,*,*,#181,.T.);
#210=ORIENTED_EDGE($,*,*,#182,.T.);
#211=ORIENTED_EDGE($,*,*,#183,.T.);
#212=ORIENTED_EDGE($,*,*,#184,.T.);
#213=ORIENTED_EDGE($,*,*,#185,.F.);
#214=ORIENTED_EDGE($,*,*,#184,.F.);
#215=ORIENTED_EDGE($,*,*,#186,.F.);
#216=ORIENTED_EDGE($,*,*,#183,.F.);
#217=ORIENTED_EDGE($,*,*,#187,.T.);
#218=ORIENTED_EDGE($,*,*,#185,.T.);
#219=ORIENTED_EDGE($,*,*,#188,.F.);
#220=ORIENTED_EDGE($,*,*,#187,.F.);
#221=ORIENTED_EDGE($,*,*,#189,.T.);
#222=ORIENTED_EDGE($,*,*,#190,.T.);
#223=ORIENTED_EDGE($,*,*,#191,.F.);
#224=ORIENTED_EDGE($,*,*,#190,.F.);
#225=ORIENTED_EDGE($,*,*,#192,.T.);
#226=ORIENTED_EDGE($,*,*,#189,.F.);
#227=ORIENTED_EDGE($,*,*,#191,.T.);
#228=ORIENTED_EDGE($,*,*,#186,.T.);
#229=ORIENTED_EDGE($,*,*,#188,.T.);
#230=ORIENTED_EDGE($,*,*,#193,.F.);
#231=ORIENTED_EDGE($,*,*,#194,.F.);
#232=ORIENTED_EDGE($,*,*,#192,.F.);
#233=ORIENTED_EDGE($,*,*,#193,.T.);
#234=ORIENTED_EDGE($,*,*,#194,.T.);
#235=CONICAL_SURFACE($,#267,12.25,45.);
#236=CONICAL_SURFACE($,#274,9.5,44.9999999999999);
#237=CONICAL_SURFACE($,#285,32.25,44.9999999999999);
#238=CONICAL_SURFACE($,#292,29.75,44.9999999999999);
#239=CONICAL_SURFACE($,#296,29.7500000000001,44.9999999999995);
#240=CONICAL_SURFACE($,#303,32.25,44.9999999999995);
#241=ADVANCED_FACE($,(#77,#55),#235,.T.);
#242=ADVANCED_FACE($,(#56,#57),#47,.T.);
#243=ADVANCED_FACE($,(#78,#58),#40,.T.);
#244=ADVANCED_FACE($,(#79,#59),#236,.T.);
#245=ADVANCED_FACE($,(#80,#60),#41,.T.);
#246=ADVANCED_FACE($,(#81),#48,.T.);
#247=ADVANCED_FACE($,(#82,#61),#49,.T.);
#248=ADVANCED_FACE($,(#83,#62),#42,.T.);
#249=ADVANCED_FACE($,(#84),#50,.T.);
#250=ADVANCED_FACE($,(#85,#63),#237,.T.);
#251=ADVANCED_FACE($,(#64,#65),#51,.T.);
#252=ADVANCED_FACE($,(#86,#66),#43,.T.);
#253=ADVANCED_FACE($,(#87,#67),#238,.F.);
#254=ADVANCED_FACE($,(#88,#68),#44,.F.);
#255=ADVANCED_FACE($,(#89,#69),#239,.F.);
#256=ADVANCED_FACE($,(#90,#70),#52,.F.);
#257=ADVANCED_FACE($,(#91,#71),#45,.F.);
#258=ADVANCED_FACE($,(#92,#72),#240,.T.);
#259=ADVANCED_FACE($,(#93,#73),#53,.F.);
#260=ADVANCED_FACE($,(#74,#75),#54,.F.);
#261=ADVANCED_FACE($,(#94,#76),#46,.F.);
#262=CLOSED_SHELL($,(#241,#242,#243,#244,#245,#246,#247,#248,#249));
#263=CLOSED_SHELL($,(#250,#251,#252,#253,#254,#255,#256,#257,#258,#259,
#260,#261));
#264=MANIFOLD_SOLID_BREP('T\X2\011B\X0\leso1',#262);
#265=MANIFOLD_SOLID_BREP('T\X2\011B\X0\leso1',#263);
#266=AXIS2_PLACEMENT_3D('placement',#407,#313,#314);
#267=AXIS2_PLACEMENT_3D($,#408,#315,#316);
#268=AXIS2_PLACEMENT_3D($,#410,#317,#318);
#269=AXIS2_PLACEMENT_3D($,#412,#319,#320);
#270=AXIS2_PLACEMENT_3D($,#413,#321,#322);
#271=AXIS2_PLACEMENT_3D($,#415,#323,#324);
#272=AXIS2_PLACEMENT_3D($,#416,#325,#326);
#273=AXIS2_PLACEMENT_3D($,#418,#327,#328);
#274=AXIS2_PLACEMENT_3D($,#419,#329,#330);
#275=AXIS2_PLACEMENT_3D($,#421,#331,#332);
#276=AXIS2_PLACEMENT_3D($,#423,#333,#334);
#277=AXIS2_PLACEMENT_3D($,#424,#335,#336);
#278=AXIS2_PLACEMENT_3D($,#425,#337,#338);
#279=AXIS2_PLACEMENT_3D($,#426,#339,#340);
#280=AXIS2_PLACEMENT_3D($,#428,#341,#342);
#281=AXIS2_PLACEMENT_3D($,#429,#343,#344);
#282=AXIS2_PLACEMENT_3D($,#431,#345,#346);
#283=AXIS2_PLACEMENT_3D($,#432,#347,#348);
#284=AXIS2_PLACEMENT_3D('placement',#433,#349,#350);
#285=AXIS2_PLACEMENT_3D($,#434,#351,#352);
#286=AXIS2_PLACEMENT_3D($,#436,#353,#354);
#287=AXIS2_PLACEMENT_3D($,#438,#355,#356);
#288=AXIS2_PLACEMENT_3D($,#439,#357,#358);
#289=AXIS2_PLACEMENT_3D($,#441,#359,#360);
#290=AXIS2_PLACEMENT_3D($,#442,#361,#362);
#291=AXIS2_PLACEMENT_3D($,#444,#363,#364);
#292=AXIS2_PLACEMENT_3D($,#445,#365,#366);
#293=AXIS2_PLACEMENT_3D($,#447,#367,#368);
#294=AXIS2_PLACEMENT_3D($,#448,#369,#370);
#295=AXIS2_PLACEMENT_3D($,#450,#371,#372);
#296=AXIS2_PLACEMENT_3D($,#451,#373,#374);
#297=AXIS2_PLACEMENT_3D($,#453,#375,#376);
#298=AXIS2_PLACEMENT_3D($,#455,#377,#378);
#299=AXIS2_PLACEMENT_3D($,#456,#379,#380);
#300=AXIS2_PLACEMENT_3D($,#458,#381,#382);
#301=AXIS2_PLACEMENT_3D($,#459,#383,#384);
#302=AXIS2_PLACEMENT_3D($,#461,#385,#386);
#303=AXIS2_PLACEMENT_3D($,#462,#387,#388);
#304=AXIS2_PLACEMENT_3D($,#463,#389,#390);
#305=AXIS2_PLACEMENT_3D($,#465,#391,#392);
#306=AXIS2_PLACEMENT_3D($,#466,#393,#394);
#307=AXIS2_PLACEMENT_3D($,#468,#395,#396);
#308=AXIS2_PLACEMENT_3D($,#469,#397,#398);
#309=AXIS2_PLACEMENT_3D('placement',#470,#399,#400);
#310=AXIS2_PLACEMENT_3D($,#471,#401,#402);
#311=AXIS2_PLACEMENT_3D($,#472,#403,#404);
#312=AXIS2_PLACEMENT_3D($,#473,#405,#406);
#313=DIRECTION('axis',(0.,0.,1.));
#314=DIRECTION('refdir',(1.,0.,0.));
#315=DIRECTION('center_axis',(1.,1.79811548120771E-016,0.));
#316=DIRECTION('ref_axis',(-9.20160458972168E-014,-1.,0.));
#317=DIRECTION('center_axis',(1.,1.79811548120771E-016,0.));
#318=DIRECTION('ref_axis',(1.79811548120764E-016,-1.,0.));
#319=DIRECTION('center_axis',(-1.,-1.79811548120771E-016,0.));
#320=DIRECTION('ref_axis',(-1.80524069044741E-013,-1.,0.));
#321=DIRECTION('center_axis',(-1.,-1.79811548120771E-016,0.));
#322=DIRECTION('ref_axis',(0.,0.,1.));
#323=DIRECTION('center_axis',(1.,1.79811548120771E-016,0.));
#324=DIRECTION('ref_axis',(1.80524069044741E-013,1.,0.));
#325=DIRECTION('center_axis',(1.,1.79811548120771E-016,0.));
#326=DIRECTION('ref_axis',(1.80524069044741E-013,1.,0.));
#327=DIRECTION('center_axis',(1.,1.79811548120771E-016,0.));
#328=DIRECTION('ref_axis',(1.80524069044741E-013,1.,0.));
#329=DIRECTION('center_axis',(1.,1.79811548120771E-016,0.));
#330=DIRECTION('ref_axis',(-9.49274940270696E-014,-1.,0.));
#331=DIRECTION('center_axis',(1.,1.79811548120771E-016,0.));
#332=DIRECTION('ref_axis',(1.79811548120764E-016,-1.,0.));
#333=DIRECTION('center_axis',(-1.,-1.79811548120771E-016,0.));
#334=DIRECTION('ref_axis',(-1.80524069044741E-013,-1.,0.));
#335=DIRECTION('center_axis',(1.,1.79811548120771E-016,0.));
#336=DIRECTION('ref_axis',(1.80524069044741E-013,1.,0.));
#337=DIRECTION('center_axis',(-1.,-1.79811548120771E-016,0.));
#338=DIRECTION('ref_axis',(0.,0.,1.));
#339=DIRECTION('center_axis',(-1.,-1.79811548120771E-016,0.));
#340=DIRECTION('ref_axis',(0.,0.,1.));
#341=DIRECTION('center_axis',(1.,1.79811548120771E-016,0.));
#342=DIRECTION('ref_axis',(1.80524069044741E-013,1.,0.));
#343=DIRECTION('center_axis',(1.,1.79811548120771E-016,0.));
#344=DIRECTION('ref_axis',(1.80524069044741E-013,1.,0.));
#345=DIRECTION('center_axis',(1.,1.79811548120771E-016,0.));
#346=DIRECTION('ref_axis',(1.80524069044741E-013,1.,0.));
#347=DIRECTION('center_axis',(1.,1.79811548120771E-016,0.));
#348=DIRECTION('ref_axis',(0.,0.,-1.));
#349=DIRECTION('axis',(0.,0.,1.));
#350=DIRECTION('refdir',(1.,0.,0.));
#351=DIRECTION('center_axis',(0.,0.,1.));
#352=DIRECTION('ref_axis',(-1.,0.,0.));
#353=DIRECTION('center_axis',(0.,0.,-1.));
#354=DIRECTION('ref_axis',(-1.,0.,0.));
#355=DIRECTION('center_axis',(0.,0.,1.));
#356=DIRECTION('ref_axis',(-1.,0.,0.));
#357=DIRECTION('center_axis',(0.,0.,-1.));
#358=DIRECTION('ref_axis',(-1.,0.,0.));
#359=DIRECTION('center_axis',(0.,0.,-1.));
#360=DIRECTION('ref_axis',(0.,1.,0.));
#361=DIRECTION('center_axis',(0.,0.,1.));
#362=DIRECTION('ref_axis',(-1.,0.,0.));
#363=DIRECTION('center_axis',(0.,0.,1.));
#364=DIRECTION('ref_axis',(-1.,0.,0.));
#365=DIRECTION('center_axis',(0.,0.,-1.));
#366=DIRECTION('ref_axis',(0.,1.,0.));
#367=DIRECTION('center_axis',(0.,0.,1.));
#368=DIRECTION('ref_axis',(0.,1.,0.));
#369=DIRECTION('center_axis',(0.,0.,-1.));
#370=DIRECTION('ref_axis',(0.,-1.,0.));
#371=DIRECTION('center_axis',(0.,0.,-1.));
#372=DIRECTION('ref_axis',(0.,-1.,0.));
#373=DIRECTION('center_axis',(0.,0.,1.));
#374=DIRECTION('ref_axis',(0.,1.,0.));
#375=DIRECTION('center_axis',(0.,0.,-1.));
#376=DIRECTION('ref_axis',(0.,1.,0.));
#377=DIRECTION('center_axis',(0.,0.,1.));
#378=DIRECTION('ref_axis',(0.,1.,0.));
#379=DIRECTION('center_axis',(0.,0.,-1.));
#380=DIRECTION('ref_axis',(-1.,0.,0.));
#381=DIRECTION('center_axis',(0.,0.,-1.));
#382=DIRECTION('ref_axis',(-1.,0.,0.));
#383=DIRECTION('center_axis',(0.,0.,-1.));
#384=DIRECTION('ref_axis',(0.,-1.,0.));
#385=DIRECTION('center_axis',(0.,0.,-1.));
#386=DIRECTION('ref_axis',(0.,-1.,0.));
#387=DIRECTION('center_axis',(0.,0.,-1.));
#388=DIRECTION('ref_axis',(-1.,0.,0.));
#389=DIRECTION('center_axis',(0.,0.,1.));
#390=DIRECTION('ref_axis',(1.,0.,0.));
#391=DIRECTION('center_axis',(0.,0.,-1.));
#392=DIRECTION('ref_axis',(-1.,0.,0.));
#393=DIRECTION('center_axis',(0.,0.,-1.));
#394=DIRECTION('ref_axis',(-1.,0.,0.));
#395=DIRECTION('center_axis',(0.,0.,1.));
#396=DIRECTION('ref_axis',(-1.,0.,0.));
#397=DIRECTION('center_axis',(0.,0.,1.));
#398=DIRECTION('ref_axis',(-1.,0.,0.));
#399=DIRECTION('axis',(0.,0.,1.));
#400=DIRECTION('refdir',(1.,0.,0.));
#401=DIRECTION($,(0.,0.,1.));
#402=DIRECTION($,(1.,0.,0.));
#403=DIRECTION($,(7.16502887091648E-017,5.77662917500295E-016,-1.));
#404=DIRECTION($,(-1.,3.60376328727569E-013,-7.16502887089566E-017));
#405=DIRECTION($,(1.,-1.81353898539641E-013,5.04870979341448E-029));
#406=DIRECTION($,(-1.17332431895292E-013,-0.646980477619263,-0.762506564941936));
#407=CARTESIAN_POINT('',(0.,0.,0.));
#408=CARTESIAN_POINT('Origin',(0.249999999998873,-9.44371748865767E-018,
0.));
#409=CARTESIAN_POINT('',(-1.45459345316069E-016,12.,1.46957615897682E-015));
#410=CARTESIAN_POINT('Origin',(2.0122792321331E-015,-5.43966045186473E-017,
0.));
#411=CARTESIAN_POINT('',(0.5,12.5,-1.53080849893419E-015));
#412=CARTESIAN_POINT('Origin',(0.499999999997743,3.5509169541332E-017,0.));
#413=CARTESIAN_POINT('Origin',(0.,11.25,0.));
#414=CARTESIAN_POINT('',(0.,10.,0.));
#415=CARTESIAN_POINT('Origin',(2.22044604925031E-015,-5.43966045186471E-017,
0.));
#416=CARTESIAN_POINT('Origin',(5.,8.44661136085207E-016,0.));
#417=CARTESIAN_POINT('',(10.,12.5,0.));
#418=CARTESIAN_POINT('Origin',(10.,1.74371887668906E-015,0.));
#419=CARTESIAN_POINT('Origin',(-13.5000000000009,-2.48185250414922E-015,
0.));
#420=CARTESIAN_POINT('',(-14.,9.,1.10218211923262E-015));
#421=CARTESIAN_POINT('Origin',(-14.,-2.57175827820944E-015,0.));
#422=CARTESIAN_POINT('',(-13.,10.,-1.22464679914735E-015));
#423=CARTESIAN_POINT('Origin',(-13.0000000000018,-2.39194673008899E-015,
0.));
#424=CARTESIAN_POINT('Origin',(-7.,-1.31307744136404E-015,0.));
#425=CARTESIAN_POINT('Origin',(-14.,5.,0.));
#426=CARTESIAN_POINT('Origin',(10.,21.,0.));
#427=CARTESIAN_POINT('',(10.,29.5,0.));
#428=CARTESIAN_POINT('Origin',(10.,1.74371887668906E-015,0.));
#429=CARTESIAN_POINT('Origin',(17.5,3.09230548759484E-015,0.));
#430=CARTESIAN_POINT('',(25.,29.5,0.));
#431=CARTESIAN_POINT('Origin',(25.,4.44089209850063E-015,0.));
#432=CARTESIAN_POINT('Origin',(25.,14.75,0.));
#433=CARTESIAN_POINT('',(0.,0.,0.));
#434=CARTESIAN_POINT('Origin',(0.,0.,0.25));
#435=CARTESIAN_POINT('',(32.5,-3.9801020972289E-015,0.5));
#436=CARTESIAN_POINT('Origin',(0.,0.,0.5));
#437=CARTESIAN_POINT('',(32.,3.91886975727153E-015,0.));
#438=CARTESIAN_POINT('Origin',(0.,0.,0.));
#439=CARTESIAN_POINT('Origin',(0.,0.,0.));
#440=CARTESIAN_POINT('',(-3.67394039744206E-015,-30.,0.));
#441=CARTESIAN_POINT('Origin',(0.,0.,0.));
#442=CARTESIAN_POINT('Origin',(0.,0.,0.));
#443=CARTESIAN_POINT('',(32.5,3.9801020972289E-015,244.5));
#444=CARTESIAN_POINT('Origin',(0.,0.,244.5));
#445=CARTESIAN_POINT('Origin',(0.,0.,0.25));
#446=CARTESIAN_POINT('',(3.61270805748469E-015,-29.5,0.5));
#447=CARTESIAN_POINT('Origin',(0.,0.,0.5));
#448=CARTESIAN_POINT('Origin',(0.,0.,10.));
#449=CARTESIAN_POINT('',(0.,-29.5,20.));
#450=CARTESIAN_POINT('Origin',(0.,0.,20.));
#451=CARTESIAN_POINT('Origin',(0.,0.,244.75));
#452=CARTESIAN_POINT('',(-3.6127080574847E-015,-29.5000000000001,244.5));
#453=CARTESIAN_POINT('Origin',(0.,0.,244.5));
#454=CARTESIAN_POINT('',(3.67394039744207E-015,-30.0000000000001,245.));
#455=CARTESIAN_POINT('Origin',(0.,0.,245.));
#456=CARTESIAN_POINT('Origin',(0.,0.,245.));
#457=CARTESIAN_POINT('',(32.,-3.91886975727153E-015,245.));
#458=CARTESIAN_POINT('Origin',(0.,0.,245.));
#459=CARTESIAN_POINT('Origin',(0.,0.,237.5));
#460=CARTESIAN_POINT('',(0.,-29.5000000000001,230.));
#461=CARTESIAN_POINT('Origin',(0.,0.,230.));
#462=CARTESIAN_POINT('Origin',(0.,0.,244.75));
#463=CARTESIAN_POINT('Origin',(0.,-29.,20.));
#464=CARTESIAN_POINT('',(0.,-28.5,20.));
#465=CARTESIAN_POINT('Origin',(0.,0.,20.));
#466=CARTESIAN_POINT('Origin',(0.,-29.,230.));
#467=CARTESIAN_POINT('',(0.,-28.5,230.));
#468=CARTESIAN_POINT('Origin',(0.,0.,230.));
#469=CARTESIAN_POINT('Origin',(0.,0.,0.));
#470=CARTESIAN_POINT('',(0.,0.,0.));
#471=CARTESIAN_POINT($,(0.,0.,0.));
#472=CARTESIAN_POINT($,(265.000000000001,-4.77659148324765E-011,-1.084085758267E-013));
#473=CARTESIAN_POINT($,(10.,-6.02503458147657E-014,0.));
#474=UNCERTAINTY_MEASURE_WITH_UNIT(LENGTH_MEASURE(0.01),#480,
'DISTANCE_ACCURACY_VALUE',
'Maximum model space distance between geometric entities at asserted c
onnectivities');
#475=UNCERTAINTY_MEASURE_WITH_UNIT(LENGTH_MEASURE(0.01),#480,
'DISTANCE_ACCURACY_VALUE',
'Maximum model space distance between geometric entities at asserted c
onnectivities');
#476=UNCERTAINTY_MEASURE_WITH_UNIT(LENGTH_MEASURE(0.01),#480,
'DISTANCE_ACCURACY_VALUE',
'Maximum model space distance between geometric entities at asserted c
onnectivities');
#477=(
GEOMETRIC_REPRESENTATION_CONTEXT(3)
GLOBAL_UNCERTAINTY_ASSIGNED_CONTEXT((#474))
GLOBAL_UNIT_ASSIGNED_CONTEXT((#480,#483,#481))
REPRESENTATION_CONTEXT('','3D')
);
#478=(
GEOMETRIC_REPRESENTATION_CONTEXT(3)
GLOBAL_UNCERTAINTY_ASSIGNED_CONTEXT((#475))
GLOBAL_UNIT_ASSIGNED_CONTEXT((#480,#483,#481))
REPRESENTATION_CONTEXT('','3D')
);
#479=(
GEOMETRIC_REPRESENTATION_CONTEXT(3)
GLOBAL_UNCERTAINTY_ASSIGNED_CONTEXT((#476))
GLOBAL_UNIT_ASSIGNED_CONTEXT((#480,#483,#481))
REPRESENTATION_CONTEXT('','3D')
);
#480=(
LENGTH_UNIT()
NAMED_UNIT(*)
SI_UNIT(.MILLI.,.METRE.)
);
#481=(
NAMED_UNIT(*)
SI_UNIT($,.STERADIAN.)
SOLID_ANGLE_UNIT()
);
#482=DIMENSIONAL_EXPONENTS(0.,0.,0.,0.,0.,0.,0.);
#483=(
CONVERSION_BASED_UNIT('degree',#485)
NAMED_UNIT(#482)
PLANE_ANGLE_UNIT()
);
#484=(
NAMED_UNIT(*)
PLANE_ANGLE_UNIT()
SI_UNIT($,.RADIAN.)
);
#485=PLANE_ANGLE_MEASURE_WITH_UNIT(PLANE_ANGLE_MEASURE(0.01745329252),#484);
#486=SHAPE_DEFINITION_REPRESENTATION(#489,#495);
#487=SHAPE_DEFINITION_REPRESENTATION(#490,#496);
#488=SHAPE_DEFINITION_REPRESENTATION(#491,#497);
#489=PRODUCT_DEFINITION_SHAPE('',$,#499);
#490=PRODUCT_DEFINITION_SHAPE('',$,#500);
#491=PRODUCT_DEFINITION_SHAPE('',$,#501);
#492=PRODUCT_DEFINITION_SHAPE($,$,#19);
#493=PRODUCT_DEFINITION_SHAPE($,$,#20);
#494=PRODUCT_DEFINITION_SHAPE($,$,#21);
#495=SHAPE_REPRESENTATION('',(#266),#477);
#496=SHAPE_REPRESENTATION('',(#284),#478);
#497=SHAPE_REPRESENTATION('',(#309,#310,#311,#312),#479);
#498=PRODUCT_DEFINITION_CONTEXT('3D Mechanical Parts',#506,'design');
#499=PRODUCT_DEFINITION('65-\X2\010D\X0\ep I','65-\X2\010D\X0\ep I',#502,
#498);
#500=PRODUCT_DEFINITION('Trubka_d65_001','Trubka_d65_001',#503,#498);
#501=PRODUCT_DEFINITION('906065','906065',#504,#498);
#502=PRODUCT_DEFINITION_FORMATION('',$,#508);
#503=PRODUCT_DEFINITION_FORMATION('',$,#509);
#504=PRODUCT_DEFINITION_FORMATION('',$,#510);
#505=APPLICATION_PROTOCOL_DEFINITION('international standard',
'automotive_design',2009,#506);
#506=APPLICATION_CONTEXT(
'Core Data for Automotive Mechanical Design Process');
#507=PRODUCT_CONTEXT('3D Mechanical Parts',#506,'mechanical');
#508=PRODUCT('65-\X2\010D\X0\ep I','65-\X2\010D\X0\ep I',$,(#507));
#509=PRODUCT('Trubka_d65_001','Trubka_d65_001',$,(#507));
#510=PRODUCT('906065','906065',$,(#507));
#511=PRESENTATION_STYLE_ASSIGNMENT((#512));
#512=SURFACE_STYLE_USAGE(.BOTH.,#513);
#513=SURFACE_SIDE_STYLE($,(#514));
#514=SURFACE_STYLE_FILL_AREA(#515);
#515=FILL_AREA_STYLE($,(#516));
#516=FILL_AREA_STYLE_COLOUR($,#517);
#517=COLOUR_RGB('',0.63921568627451,0.63921568627451,0.686274509803922);
ENDSEC;
END-ISO-10303-21;
