ISO-10303-21;
HEADER;
/****************************************************************
 * Generated by software with PDE/Lib inside                    *
 * PDElib Version v51a, created Mon 03/22/2010                  *
 * International Technegroup Inc. (www.iti-oh.com)              *
 ****************************************************************/
FILE_DESCRIPTION((''),'2;1');
FILE_NAME('D:\\P\X2\0159\X0\evod katalogu\\Pro WEB\\STEP\\P\S\asov\S\i dopravn\S\mky\\Kompleta\X2\010D\X0\n\S\m dopl\X2\0148\X0\ky\\904513.stp','2010-09-12T19:40:14',('Jarda'),(''),'Autodesk Inventor 2010','Autodesk Inventor 2010','');
FILE_SCHEMA(('AUTOMOTIVE_DESIGN { 1 0 10303 214 1 1 1 1 }'));
ENDSEC;
DATA;
#5=APPLICATION_CONTEXT('automotive design');
#6=APPLICATION_PROTOCOL_DEFINITION('International Standard','automotive_design',2001,#5);
#7=PRODUCT_CONTEXT('',#5,'mechanical');
#8=PRODUCT('904513-10','904513-10',$,(#7));
#9=PRODUCT_RELATED_PRODUCT_CATEGORY('part',$,(#8));
#10=PRODUCT_DEFINITION_FORMATION('',$,#8);
#11=PRODUCT_DEFINITION_CONTEXT('part definition',#5,'design');
#12=PRODUCT_DEFINITION('',$,#10,#11);
#18=(NAMED_UNIT(*)PLANE_ANGLE_UNIT()SI_UNIT($,.RADIAN.));
#19=DIMENSIONAL_EXPONENTS(0.0,0.0,0.0,0.0,0.0,0.0,0.0);
#20=PLANE_ANGLE_MEASURE_WITH_UNIT(PLANE_ANGLE_MEASURE(0.017453292500000),#18);
#24=(CONVERSION_BASED_UNIT('DEGREE',#20)NAMED_UNIT(#19)PLANE_ANGLE_UNIT());
#28=(NAMED_UNIT(*)SI_UNIT($,.STERADIAN.)SOLID_ANGLE_UNIT());
#32=(LENGTH_UNIT()NAMED_UNIT(*)SI_UNIT(.MILLI.,.METRE.));
#34=UNCERTAINTY_MEASURE_WITH_UNIT(LENGTH_MEASURE(0.010000000000000),#32,'DISTANCE_ACCURACY_VALUE','');
#36=(GEOMETRIC_REPRESENTATION_CONTEXT(3)GLOBAL_UNCERTAINTY_ASSIGNED_CONTEXT((#34))GLOBAL_UNIT_ASSIGNED_CONTEXT((#24,#28,#32))REPRESENTATION_CONTEXT('None','None'));
#37=AXIS2_PLACEMENT_3D('',#38,#39,#40);
#38=CARTESIAN_POINT('',(0.0,0.0,0.0));
#39=DIRECTION('',(0.0,0.0,1.0));
#40=DIRECTION('',(1.0,0.0,0.0));
#41=SHAPE_REPRESENTATION('',(#37),#36);
#42=PRODUCT_DEFINITION_SHAPE('','',#12);
#43=SHAPE_DEFINITION_REPRESENTATION(#42,#41);
#49=(NAMED_UNIT(*)PLANE_ANGLE_UNIT()SI_UNIT($,.RADIAN.));
#50=DIMENSIONAL_EXPONENTS(0.0,0.0,0.0,0.0,0.0,0.0,0.0);
#51=PLANE_ANGLE_MEASURE_WITH_UNIT(PLANE_ANGLE_MEASURE(0.017453292500000),#49);
#55=(CONVERSION_BASED_UNIT('DEGREE',#51)NAMED_UNIT(#50)PLANE_ANGLE_UNIT());
#59=(NAMED_UNIT(*)SI_UNIT($,.STERADIAN.)SOLID_ANGLE_UNIT());
#63=(LENGTH_UNIT()NAMED_UNIT(*)SI_UNIT(.MILLI.,.METRE.));
#65=UNCERTAINTY_MEASURE_WITH_UNIT(LENGTH_MEASURE(0.000001000000000),#63,'DISTANCE_ACCURACY_VALUE','');
#67=(GEOMETRIC_REPRESENTATION_CONTEXT(3)GLOBAL_UNCERTAINTY_ASSIGNED_CONTEXT((#65))GLOBAL_UNIT_ASSIGNED_CONTEXT((#55,#59,#63))REPRESENTATION_CONTEXT('','3D'));
#68=CARTESIAN_POINT('',(-4.149995999999999,-4.499994999999999,0.0));
#69=DIRECTION('',(-1.0,0.0,0.0));
#70=DIRECTION('',(0.0,0.0,1.0));
#71=AXIS2_PLACEMENT_3D('',#68,#69,#70);
#72=PLANE('',#71);
#73=CARTESIAN_POINT('',(-4.149995999999999,-4.499994999999999,10.0));
#74=VERTEX_POINT('',#73);
#75=CARTESIAN_POINT('',(-4.149995999999999,0.0,10.0));
#76=VERTEX_POINT('',#75);
#77=CARTESIAN_POINT('',(-4.149995999999999,-4.499994999999998,10.0));
#78=DIRECTION('',(0.0,1.0,0.0));
#79=VECTOR('',#78,4.499994999999998);
#80=LINE('',#77,#79);
#81=EDGE_CURVE('',#74,#76,#80,.T.);
#82=ORIENTED_EDGE('',*,*,#81,.T.);
#83=CARTESIAN_POINT('',(-4.149995999999999,0.0,0.0));
#84=VERTEX_POINT('',#83);
#85=CARTESIAN_POINT('',(-4.149995999999999,0.0,0.0));
#86=DIRECTION('',(0.0,0.0,1.0));
#87=VECTOR('',#86,10.0);
#88=LINE('',#85,#87);
#89=EDGE_CURVE('',#84,#76,#88,.T.);
#90=ORIENTED_EDGE('',*,*,#89,.F.);
#91=CARTESIAN_POINT('',(-4.149995999999999,-4.499994999999999,0.0));
#92=VERTEX_POINT('',#91);
#93=CARTESIAN_POINT('',(-4.149995999999999,-4.499994999999998,0.0));
#94=DIRECTION('',(0.0,1.0,0.0));
#95=VECTOR('',#94,4.499994999999998);
#96=LINE('',#93,#95);
#97=EDGE_CURVE('',#92,#84,#96,.T.);
#98=ORIENTED_EDGE('',*,*,#97,.F.);
#99=CARTESIAN_POINT('',(-4.149995999999999,-4.499994999999999,0.0));
#100=DIRECTION('',(0.0,0.0,1.0));
#101=VECTOR('',#100,10.0);
#102=LINE('',#99,#101);
#103=EDGE_CURVE('',#92,#74,#102,.T.);
#104=ORIENTED_EDGE('',*,*,#103,.T.);
#105=EDGE_LOOP('',(#82,#90,#98,#104));
#106=FACE_OUTER_BOUND('',#105,.T.);
#107=ADVANCED_FACE('',(#106),#72,.T.);
#108=CARTESIAN_POINT('',(-4.149995999999999,0.0,0.0));
#109=DIRECTION('',(0.0,1.0,0.0));
#110=DIRECTION('',(0.0,0.0,1.0));
#111=AXIS2_PLACEMENT_3D('',#108,#109,#110);
#112=PLANE('',#111);
#113=CARTESIAN_POINT('',(-0.999999000000000,0.0,10.0));
#114=VERTEX_POINT('',#113);
#115=CARTESIAN_POINT('',(-4.149995999999999,0.0,10.0));
#116=DIRECTION('',(1.0,0.0,0.0));
#117=VECTOR('',#116,3.149996999999999);
#118=LINE('',#115,#117);
#119=EDGE_CURVE('',#76,#114,#118,.T.);
#120=ORIENTED_EDGE('',*,*,#119,.T.);
#121=CARTESIAN_POINT('',(-0.999999000000000,0.0,0.0));
#122=VERTEX_POINT('',#121);
#123=CARTESIAN_POINT('',(-0.999999000000000,0.0,0.0));
#124=DIRECTION('',(0.0,0.0,1.0));
#125=VECTOR('',#124,10.0);
#126=LINE('',#123,#125);
#127=EDGE_CURVE('',#122,#114,#126,.T.);
#128=ORIENTED_EDGE('',*,*,#127,.F.);
#129=CARTESIAN_POINT('',(-4.149995999999999,0.0,0.0));
#130=DIRECTION('',(1.0,0.0,0.0));
#131=VECTOR('',#130,3.149996999999999);
#132=LINE('',#129,#131);
#133=EDGE_CURVE('',#84,#122,#132,.T.);
#134=ORIENTED_EDGE('',*,*,#133,.F.);
#135=ORIENTED_EDGE('',*,*,#89,.T.);
#136=EDGE_LOOP('',(#120,#128,#134,#135));
#137=FACE_OUTER_BOUND('',#136,.T.);
#138=ADVANCED_FACE('',(#137),#112,.T.);
#139=CARTESIAN_POINT('',(-0.999999000000000,0.0,0.0));
#140=DIRECTION('',(-1.0,0.0,0.0));
#141=DIRECTION('',(0.0,0.0,1.0));
#142=AXIS2_PLACEMENT_3D('',#139,#140,#141);
#143=PLANE('',#142);
#144=CARTESIAN_POINT('',(-0.999999000000000,2.499998000000000,10.0));
#145=VERTEX_POINT('',#144);
#146=CARTESIAN_POINT('',(-0.999999000000000,0.0,10.0));
#147=DIRECTION('',(0.0,1.0,0.0));
#148=VECTOR('',#147,2.499998000000000);
#149=LINE('',#146,#148);
#150=EDGE_CURVE('',#114,#145,#149,.T.);
#151=ORIENTED_EDGE('',*,*,#150,.T.);
#152=CARTESIAN_POINT('',(-0.999999000000000,2.499998000000000,0.0));
#153=VERTEX_POINT('',#152);
#154=CARTESIAN_POINT('',(-0.999999000000000,2.499998000000000,0.0));
#155=DIRECTION('',(0.0,0.0,1.0));
#156=VECTOR('',#155,10.0);
#157=LINE('',#154,#156);
#158=EDGE_CURVE('',#153,#145,#157,.T.);
#159=ORIENTED_EDGE('',*,*,#158,.F.);
#160=CARTESIAN_POINT('',(-0.999999000000000,0.0,0.0));
#161=DIRECTION('',(0.0,1.0,0.0));
#162=VECTOR('',#161,2.499998000000000);
#163=LINE('',#160,#162);
#164=EDGE_CURVE('',#122,#153,#163,.T.);
#165=ORIENTED_EDGE('',*,*,#164,.F.);
#166=ORIENTED_EDGE('',*,*,#127,.T.);
#167=EDGE_LOOP('',(#151,#159,#165,#166));
#168=FACE_OUTER_BOUND('',#167,.T.);
#169=ADVANCED_FACE('',(#168),#143,.T.);
#170=CARTESIAN_POINT('',(-0.999999000000000,2.499998000000000,0.0));
#171=DIRECTION('',(0.0,-1.0,0.0));
#172=DIRECTION('',(0.0,0.0,-1.0));
#173=AXIS2_PLACEMENT_3D('',#170,#171,#172);
#174=PLANE('',#173);
#175=CARTESIAN_POINT('',(-5.999994000000001,2.499998000000000,10.0));
#176=VERTEX_POINT('',#175);
#177=CARTESIAN_POINT('',(-0.999999000000000,2.499998000000000,10.0));
#178=DIRECTION('',(-1.0,0.0,0.0));
#179=VECTOR('',#178,4.999995000000001);
#180=LINE('',#177,#179);
#181=EDGE_CURVE('',#145,#176,#180,.T.);
#182=ORIENTED_EDGE('',*,*,#181,.T.);
#183=CARTESIAN_POINT('',(-5.999994000000001,2.499998000000000,0.0));
#184=VERTEX_POINT('',#183);
#185=CARTESIAN_POINT('',(-5.999994000000001,2.499998000000000,0.0));
#186=DIRECTION('',(0.0,0.0,1.0));
#187=VECTOR('',#186,10.0);
#188=LINE('',#185,#187);
#189=EDGE_CURVE('',#184,#176,#188,.T.);
#190=ORIENTED_EDGE('',*,*,#189,.F.);
#191=CARTESIAN_POINT('',(-0.999999000000000,2.499998000000000,0.0));
#192=DIRECTION('',(-1.0,0.0,0.0));
#193=VECTOR('',#192,4.999995000000001);
#194=LINE('',#191,#193);
#195=EDGE_CURVE('',#153,#184,#194,.T.);
#196=ORIENTED_EDGE('',*,*,#195,.F.);
#197=ORIENTED_EDGE('',*,*,#158,.T.);
#198=EDGE_LOOP('',(#182,#190,#196,#197));
#199=FACE_OUTER_BOUND('',#198,.T.);
#200=ADVANCED_FACE('',(#199),#174,.T.);
#201=CARTESIAN_POINT('',(-5.999994000000001,2.499998000000000,0.0));
#202=DIRECTION('',(-1.0,0.0,0.0));
#203=DIRECTION('',(0.0,0.0,1.0));
#204=AXIS2_PLACEMENT_3D('',#201,#202,#203);
#205=PLANE('',#204);
#206=CARTESIAN_POINT('',(-5.999993999999999,21.749995999999999,10.0));
#207=VERTEX_POINT('',#206);
#208=CARTESIAN_POINT('',(-5.999994000000001,2.499998000000001,10.0));
#209=DIRECTION('',(0.0,1.0,0.0));
#210=VECTOR('',#209,19.249997999999998);
#211=LINE('',#208,#210);
#212=EDGE_CURVE('',#176,#207,#211,.T.);
#213=ORIENTED_EDGE('',*,*,#212,.T.);
#214=CARTESIAN_POINT('',(-5.999993999999999,21.749995999999999,0.0));
#215=VERTEX_POINT('',#214);
#216=CARTESIAN_POINT('',(-5.999993999999999,21.749995999999999,0.0));
#217=DIRECTION('',(0.0,0.0,1.0));
#218=VECTOR('',#217,10.0);
#219=LINE('',#216,#218);
#220=EDGE_CURVE('',#215,#207,#219,.T.);
#221=ORIENTED_EDGE('',*,*,#220,.F.);
#222=CARTESIAN_POINT('',(-5.999994000000001,2.499998000000001,0.0));
#223=DIRECTION('',(0.0,1.0,0.0));
#224=VECTOR('',#223,19.249997999999998);
#225=LINE('',#222,#224);
#226=EDGE_CURVE('',#184,#215,#225,.T.);
#227=ORIENTED_EDGE('',*,*,#226,.F.);
#228=ORIENTED_EDGE('',*,*,#189,.T.);
#229=EDGE_LOOP('',(#213,#221,#227,#228));
#230=FACE_OUTER_BOUND('',#229,.T.);
#231=ADVANCED_FACE('',(#230),#205,.T.);
#232=CARTESIAN_POINT('',(-5.249994999999999,21.749995999999999,0.0));
#233=DIRECTION('',(0.0,0.0,1.0));
#234=DIRECTION('',(0.0,1.0,0.0));
#235=AXIS2_PLACEMENT_3D('',#232,#233,#234);
#236=CYLINDRICAL_SURFACE('',#235,0.749999000000000);
#237=CARTESIAN_POINT('',(-5.249994999999999,22.499994999999998,10.0));
#238=VERTEX_POINT('',#237);
#239=CARTESIAN_POINT('',(-5.249994999999999,21.749995999999999,10.0));
#240=DIRECTION('',(0.0,0.0,-1.0));
#241=DIRECTION('',(0.0,1.0,0.0));
#242=AXIS2_PLACEMENT_3D('',#239,#240,#241);
#243=CIRCLE('',#242,0.749999000000000);
#244=EDGE_CURVE('',#207,#238,#243,.T.);
#245=ORIENTED_EDGE('',*,*,#244,.T.);
#246=CARTESIAN_POINT('',(-5.249994999999999,22.499994999999998,0.0));
#247=VERTEX_POINT('',#246);
#248=CARTESIAN_POINT('',(-5.249994999999999,22.499994999999998,0.0));
#249=DIRECTION('',(0.0,0.0,1.0));
#250=VECTOR('',#249,10.0);
#251=LINE('',#248,#250);
#252=EDGE_CURVE('',#247,#238,#251,.T.);
#253=ORIENTED_EDGE('',*,*,#252,.F.);
#254=CARTESIAN_POINT('',(-5.249994999999999,21.749995999999999,0.0));
#255=DIRECTION('',(0.0,0.0,-1.0));
#256=DIRECTION('',(0.0,1.0,0.0));
#257=AXIS2_PLACEMENT_3D('',#254,#255,#256);
#258=CIRCLE('',#257,0.749999000000000);
#259=EDGE_CURVE('',#215,#247,#258,.T.);
#260=ORIENTED_EDGE('',*,*,#259,.F.);
#261=ORIENTED_EDGE('',*,*,#220,.T.);
#262=EDGE_LOOP('',(#245,#253,#260,#261));
#263=FACE_OUTER_BOUND('',#262,.T.);
#264=ADVANCED_FACE('',(#263),#236,.T.);
#265=CARTESIAN_POINT('',(-5.249994999999999,22.499994999999998,0.0));
#266=DIRECTION('',(0.0,1.0,0.0));
#267=DIRECTION('',(0.0,0.0,1.0));
#268=AXIS2_PLACEMENT_3D('',#265,#266,#267);
#269=PLANE('',#268);
#270=CARTESIAN_POINT('',(5.249994999999999,22.499994999999998,10.0));
#271=VERTEX_POINT('',#270);
#272=CARTESIAN_POINT('',(-5.249994999999999,22.499994999999998,10.0));
#273=DIRECTION('',(1.0,0.0,0.0));
#274=VECTOR('',#273,10.499990000000000);
#275=LINE('',#272,#274);
#276=EDGE_CURVE('',#238,#271,#275,.T.);
#277=ORIENTED_EDGE('',*,*,#276,.T.);
#278=CARTESIAN_POINT('',(5.249994999999999,22.499994999999998,0.0));
#279=VERTEX_POINT('',#278);
#280=CARTESIAN_POINT('',(5.249994999999999,22.499994999999998,0.0));
#281=DIRECTION('',(0.0,0.0,1.0));
#282=VECTOR('',#281,10.0);
#283=LINE('',#280,#282);
#284=EDGE_CURVE('',#279,#271,#283,.T.);
#285=ORIENTED_EDGE('',*,*,#284,.F.);
#286=CARTESIAN_POINT('',(-5.249994999999999,22.499994999999998,0.0));
#287=DIRECTION('',(1.0,0.0,0.0));
#288=VECTOR('',#287,10.499990000000000);
#289=LINE('',#286,#288);
#290=EDGE_CURVE('',#247,#279,#289,.T.);
#291=ORIENTED_EDGE('',*,*,#290,.F.);
#292=ORIENTED_EDGE('',*,*,#252,.T.);
#293=EDGE_LOOP('',(#277,#285,#291,#292));
#294=FACE_OUTER_BOUND('',#293,.T.);
#295=ADVANCED_FACE('',(#294),#269,.T.);
#296=CARTESIAN_POINT('',(5.249994999999999,21.749995999999999,0.0));
#297=DIRECTION('',(0.0,0.0,1.0));
#298=DIRECTION('',(1.0,0.0,0.0));
#299=AXIS2_PLACEMENT_3D('',#296,#297,#298);
#300=CYLINDRICAL_SURFACE('',#299,0.749999000000000);
#301=CARTESIAN_POINT('',(5.999993999999999,21.749995999999999,10.0));
#302=VERTEX_POINT('',#301);
#303=CARTESIAN_POINT('',(5.249994999999999,21.749995999999999,10.0));
#304=DIRECTION('',(0.0,0.0,-1.0));
#305=DIRECTION('',(1.0,0.0,0.0));
#306=AXIS2_PLACEMENT_3D('',#303,#304,#305);
#307=CIRCLE('',#306,0.749999000000000);
#308=EDGE_CURVE('',#271,#302,#307,.T.);
#309=ORIENTED_EDGE('',*,*,#308,.T.);
#310=CARTESIAN_POINT('',(5.999993999999999,21.749995999999999,0.0));
#311=VERTEX_POINT('',#310);
#312=CARTESIAN_POINT('',(5.999993999999999,21.749995999999999,0.0));
#313=DIRECTION('',(0.0,0.0,1.0));
#314=VECTOR('',#313,10.0);
#315=LINE('',#312,#314);
#316=EDGE_CURVE('',#311,#302,#315,.T.);
#317=ORIENTED_EDGE('',*,*,#316,.F.);
#318=CARTESIAN_POINT('',(5.249994999999999,21.749995999999999,0.0));
#319=DIRECTION('',(0.0,0.0,-1.0));
#320=DIRECTION('',(1.0,0.0,0.0));
#321=AXIS2_PLACEMENT_3D('',#318,#319,#320);
#322=CIRCLE('',#321,0.749999000000000);
#323=EDGE_CURVE('',#279,#311,#322,.T.);
#324=ORIENTED_EDGE('',*,*,#323,.F.);
#325=ORIENTED_EDGE('',*,*,#284,.T.);
#326=EDGE_LOOP('',(#309,#317,#324,#325));
#327=FACE_OUTER_BOUND('',#326,.T.);
#328=ADVANCED_FACE('',(#327),#300,.T.);
#329=CARTESIAN_POINT('',(5.999993999999999,21.749995999999999,0.0));
#330=DIRECTION('',(1.0,0.0,0.0));
#331=DIRECTION('',(0.0,0.0,-1.0));
#332=AXIS2_PLACEMENT_3D('',#329,#330,#331);
#333=PLANE('',#332);
#334=CARTESIAN_POINT('',(5.999994000000001,0.0,10.0));
#335=VERTEX_POINT('',#334);
#336=CARTESIAN_POINT('',(5.999993999999999,21.749995999999999,10.0));
#337=DIRECTION('',(0.0,-1.0,0.0));
#338=VECTOR('',#337,21.749995999999999);
#339=LINE('',#336,#338);
#340=EDGE_CURVE('',#302,#335,#339,.T.);
#341=ORIENTED_EDGE('',*,*,#340,.T.);
#342=CARTESIAN_POINT('',(5.999994000000001,0.0,0.0));
#343=VERTEX_POINT('',#342);
#344=CARTESIAN_POINT('',(5.999994000000001,0.0,0.0));
#345=DIRECTION('',(0.0,0.0,1.0));
#346=VECTOR('',#345,10.0);
#347=LINE('',#344,#346);
#348=EDGE_CURVE('',#343,#335,#347,.T.);
#349=ORIENTED_EDGE('',*,*,#348,.F.);
#350=CARTESIAN_POINT('',(5.999993999999999,21.749995999999999,0.0));
#351=DIRECTION('',(0.0,-1.0,0.0));
#352=VECTOR('',#351,21.749995999999999);
#353=LINE('',#350,#352);
#354=EDGE_CURVE('',#311,#343,#353,.T.);
#355=ORIENTED_EDGE('',*,*,#354,.F.);
#356=ORIENTED_EDGE('',*,*,#316,.T.);
#357=EDGE_LOOP('',(#341,#349,#355,#356));
#358=FACE_OUTER_BOUND('',#357,.T.);
#359=ADVANCED_FACE('',(#358),#333,.T.);
#360=CARTESIAN_POINT('',(5.999994000000001,0.0,0.0));
#361=DIRECTION('',(0.0,-1.0,0.0));
#362=DIRECTION('',(0.0,0.0,-1.0));
#363=AXIS2_PLACEMENT_3D('',#360,#361,#362);
#364=PLANE('',#363);
#365=CARTESIAN_POINT('',(4.149995999999999,0.0,10.0));
#366=VERTEX_POINT('',#365);
#367=CARTESIAN_POINT('',(5.999994000000001,0.0,10.0));
#368=DIRECTION('',(-1.0,0.0,0.0));
#369=VECTOR('',#368,1.849998000000001);
#370=LINE('',#367,#369);
#371=EDGE_CURVE('',#335,#366,#370,.T.);
#372=ORIENTED_EDGE('',*,*,#371,.T.);
#373=CARTESIAN_POINT('',(4.149995999999999,0.0,0.0));
#374=VERTEX_POINT('',#373);
#375=CARTESIAN_POINT('',(4.149995999999999,0.0,0.0));
#376=DIRECTION('',(0.0,0.0,1.0));
#377=VECTOR('',#376,10.0);
#378=LINE('',#375,#377);
#379=EDGE_CURVE('',#374,#366,#378,.T.);
#380=ORIENTED_EDGE('',*,*,#379,.F.);
#381=CARTESIAN_POINT('',(5.999994000000001,0.0,0.0));
#382=DIRECTION('',(-1.0,0.0,0.0));
#383=VECTOR('',#382,1.849998000000001);
#384=LINE('',#381,#383);
#385=EDGE_CURVE('',#343,#374,#384,.T.);
#386=ORIENTED_EDGE('',*,*,#385,.F.);
#387=ORIENTED_EDGE('',*,*,#348,.T.);
#388=EDGE_LOOP('',(#372,#380,#386,#387));
#389=FACE_OUTER_BOUND('',#388,.T.);
#390=ADVANCED_FACE('',(#389),#364,.T.);
#391=CARTESIAN_POINT('',(4.149995999999999,0.0,0.0));
#392=DIRECTION('',(1.0,0.0,0.0));
#393=DIRECTION('',(0.0,0.0,-1.0));
#394=AXIS2_PLACEMENT_3D('',#391,#392,#393);
#395=PLANE('',#394);
#396=CARTESIAN_POINT('',(4.149995999999999,-4.499994999999999,10.0));
#397=VERTEX_POINT('',#396);
#398=CARTESIAN_POINT('',(4.149995999999999,0.0,10.0));
#399=DIRECTION('',(0.0,-1.0,0.0));
#400=VECTOR('',#399,4.499995000000000);
#401=LINE('',#398,#400);
#402=EDGE_CURVE('',#366,#397,#401,.T.);
#403=ORIENTED_EDGE('',*,*,#402,.T.);
#404=CARTESIAN_POINT('',(4.149995999999999,-4.499994999999999,0.0));
#405=VERTEX_POINT('',#404);
#406=CARTESIAN_POINT('',(4.149995999999999,-4.499994999999999,0.0));
#407=DIRECTION('',(0.0,0.0,1.0));
#408=VECTOR('',#407,10.0);
#409=LINE('',#406,#408);
#410=EDGE_CURVE('',#405,#397,#409,.T.);
#411=ORIENTED_EDGE('',*,*,#410,.F.);
#412=CARTESIAN_POINT('',(4.149995999999999,0.0,0.0));
#413=DIRECTION('',(0.0,-1.0,0.0));
#414=VECTOR('',#413,4.499995000000000);
#415=LINE('',#412,#414);
#416=EDGE_CURVE('',#374,#405,#415,.T.);
#417=ORIENTED_EDGE('',*,*,#416,.F.);
#418=ORIENTED_EDGE('',*,*,#379,.T.);
#419=EDGE_LOOP('',(#403,#411,#417,#418));
#420=FACE_OUTER_BOUND('',#419,.T.);
#421=ADVANCED_FACE('',(#420),#395,.T.);
#422=CARTESIAN_POINT('',(4.149995999999999,-4.499994999999999,0.0));
#423=DIRECTION('',(0.0,1.0,0.0));
#424=DIRECTION('',(0.0,0.0,1.0));
#425=AXIS2_PLACEMENT_3D('',#422,#423,#424);
#426=PLANE('',#425);
#427=CARTESIAN_POINT('',(5.999994000000001,-4.499994999999999,10.0));
#428=VERTEX_POINT('',#427);
#429=CARTESIAN_POINT('',(4.149995999999999,-4.499994999999998,10.0));
#430=DIRECTION('',(1.0,0.0,0.0));
#431=VECTOR('',#430,1.849998000000002);
#432=LINE('',#429,#431);
#433=EDGE_CURVE('',#397,#428,#432,.T.);
#434=ORIENTED_EDGE('',*,*,#433,.T.);
#435=CARTESIAN_POINT('',(5.999994000000001,-4.499994999999999,0.0));
#436=VERTEX_POINT('',#435);
#437=CARTESIAN_POINT('',(5.999994000000001,-4.499994999999999,0.0));
#438=DIRECTION('',(0.0,0.0,1.0));
#439=VECTOR('',#438,10.0);
#440=LINE('',#437,#439);
#441=EDGE_CURVE('',#436,#428,#440,.T.);
#442=ORIENTED_EDGE('',*,*,#441,.F.);
#443=CARTESIAN_POINT('',(4.149995999999999,-4.499994999999998,0.0));
#444=DIRECTION('',(1.0,0.0,0.0));
#445=VECTOR('',#444,1.849998000000002);
#446=LINE('',#443,#445);
#447=EDGE_CURVE('',#405,#436,#446,.T.);
#448=ORIENTED_EDGE('',*,*,#447,.F.);
#449=ORIENTED_EDGE('',*,*,#410,.T.);
#450=EDGE_LOOP('',(#434,#442,#448,#449));
#451=FACE_OUTER_BOUND('',#450,.T.);
#452=ADVANCED_FACE('',(#451),#426,.T.);
#453=CARTESIAN_POINT('',(5.999994000000001,-4.499994999999999,0.0));
#454=DIRECTION('',(1.0,0.0,0.0));
#455=DIRECTION('',(0.0,0.0,-1.0));
#456=AXIS2_PLACEMENT_3D('',#453,#454,#455);
#457=PLANE('',#456);
#458=CARTESIAN_POINT('',(5.999994000000001,-12.499986999999990,10.0));
#459=VERTEX_POINT('',#458);
#460=CARTESIAN_POINT('',(5.999994000000001,-4.499994999999998,10.0));
#461=DIRECTION('',(0.0,-1.0,0.0));
#462=VECTOR('',#461,7.999991999999992);
#463=LINE('',#460,#462);
#464=EDGE_CURVE('',#428,#459,#463,.T.);
#465=ORIENTED_EDGE('',*,*,#464,.T.);
#466=CARTESIAN_POINT('',(5.999994000000001,-12.499986999999990,0.0));
#467=VERTEX_POINT('',#466);
#468=CARTESIAN_POINT('',(5.999994000000001,-12.499986999999990,0.0));
#469=DIRECTION('',(0.0,0.0,1.0));
#470=VECTOR('',#469,10.0);
#471=LINE('',#468,#470);
#472=EDGE_CURVE('',#467,#459,#471,.T.);
#473=ORIENTED_EDGE('',*,*,#472,.F.);
#474=CARTESIAN_POINT('',(5.999994000000001,-4.499994999999998,0.0));
#475=DIRECTION('',(0.0,-1.0,0.0));
#476=VECTOR('',#475,7.999991999999992);
#477=LINE('',#474,#476);
#478=EDGE_CURVE('',#436,#467,#477,.T.);
#479=ORIENTED_EDGE('',*,*,#478,.F.);
#480=ORIENTED_EDGE('',*,*,#441,.T.);
#481=EDGE_LOOP('',(#465,#473,#479,#480));
#482=FACE_OUTER_BOUND('',#481,.T.);
#483=ADVANCED_FACE('',(#482),#457,.T.);
#484=CARTESIAN_POINT('',(5.999994000000001,-12.499986999999990,0.0));
#485=DIRECTION('',(0.0,-1.0,0.0));
#486=DIRECTION('',(0.0,0.0,-1.0));
#487=AXIS2_PLACEMENT_3D('',#484,#485,#486);
#488=PLANE('',#487);
#489=CARTESIAN_POINT('',(-5.999994000000001,-12.499986999999990,10.0));
#490=VERTEX_POINT('',#489);
#491=CARTESIAN_POINT('',(5.999994000000001,-12.499986999999990,10.0));
#492=DIRECTION('',(-1.0,0.0,0.0));
#493=VECTOR('',#492,11.999988000000002);
#494=LINE('',#491,#493);
#495=EDGE_CURVE('',#459,#490,#494,.T.);
#496=ORIENTED_EDGE('',*,*,#495,.T.);
#497=CARTESIAN_POINT('',(-5.999994000000001,-12.499986999999990,0.0));
#498=VERTEX_POINT('',#497);
#499=CARTESIAN_POINT('',(-5.999994000000001,-12.499986999999990,0.0));
#500=DIRECTION('',(0.0,0.0,1.0));
#501=VECTOR('',#500,10.0);
#502=LINE('',#499,#501);
#503=EDGE_CURVE('',#498,#490,#502,.T.);
#504=ORIENTED_EDGE('',*,*,#503,.F.);
#505=CARTESIAN_POINT('',(5.999994000000001,-12.499986999999990,0.0));
#506=DIRECTION('',(-1.0,0.0,0.0));
#507=VECTOR('',#506,11.999988000000002);
#508=LINE('',#505,#507);
#509=EDGE_CURVE('',#467,#498,#508,.T.);
#510=ORIENTED_EDGE('',*,*,#509,.F.);
#511=ORIENTED_EDGE('',*,*,#472,.T.);
#512=EDGE_LOOP('',(#496,#504,#510,#511));
#513=FACE_OUTER_BOUND('',#512,.T.);
#514=ADVANCED_FACE('',(#513),#488,.T.);
#515=CARTESIAN_POINT('',(-5.999994000000001,-12.499986999999990,0.0));
#516=DIRECTION('',(-1.0,0.0,0.0));
#517=DIRECTION('',(0.0,0.0,1.0));
#518=AXIS2_PLACEMENT_3D('',#515,#516,#517);
#519=PLANE('',#518);
#520=CARTESIAN_POINT('',(-5.999994000000001,-4.499994999999999,10.0));
#521=VERTEX_POINT('',#520);
#522=CARTESIAN_POINT('',(-5.999994000000001,-12.499986999999990,10.0));
#523=DIRECTION('',(0.0,1.0,0.0));
#524=VECTOR('',#523,7.999991999999991);
#525=LINE('',#522,#524);
#526=EDGE_CURVE('',#490,#521,#525,.T.);
#527=ORIENTED_EDGE('',*,*,#526,.T.);
#528=CARTESIAN_POINT('',(-5.999994000000001,-4.499994999999999,0.0));
#529=VERTEX_POINT('',#528);
#530=CARTESIAN_POINT('',(-5.999994000000001,-4.499994999999999,0.0));
#531=DIRECTION('',(0.0,0.0,1.0));
#532=VECTOR('',#531,10.0);
#533=LINE('',#530,#532);
#534=EDGE_CURVE('',#529,#521,#533,.T.);
#535=ORIENTED_EDGE('',*,*,#534,.F.);
#536=CARTESIAN_POINT('',(-5.999994000000001,-12.499986999999990,0.0));
#537=DIRECTION('',(0.0,1.0,0.0));
#538=VECTOR('',#537,7.999991999999991);
#539=LINE('',#536,#538);
#540=EDGE_CURVE('',#498,#529,#539,.T.);
#541=ORIENTED_EDGE('',*,*,#540,.F.);
#542=ORIENTED_EDGE('',*,*,#503,.T.);
#543=EDGE_LOOP('',(#527,#535,#541,#542));
#544=FACE_OUTER_BOUND('',#543,.T.);
#545=ADVANCED_FACE('',(#544),#519,.T.);
#546=CARTESIAN_POINT('',(-5.999994000000001,-4.499994999999999,0.0));
#547=DIRECTION('',(0.0,1.0,0.0));
#548=DIRECTION('',(0.0,0.0,1.0));
#549=AXIS2_PLACEMENT_3D('',#546,#547,#548);
#550=PLANE('',#549);
#551=CARTESIAN_POINT('',(-5.999994000000001,-4.499994999999998,10.0));
#552=DIRECTION('',(1.0,0.0,0.0));
#553=VECTOR('',#552,1.849998000000001);
#554=LINE('',#551,#553);
#555=EDGE_CURVE('',#521,#74,#554,.T.);
#556=ORIENTED_EDGE('',*,*,#555,.T.);
#557=ORIENTED_EDGE('',*,*,#103,.F.);
#558=CARTESIAN_POINT('',(-5.999994000000001,-4.499994999999998,0.0));
#559=DIRECTION('',(1.0,0.0,0.0));
#560=VECTOR('',#559,1.849998000000001);
#561=LINE('',#558,#560);
#562=EDGE_CURVE('',#529,#92,#561,.T.);
#563=ORIENTED_EDGE('',*,*,#562,.F.);
#564=ORIENTED_EDGE('',*,*,#534,.T.);
#565=EDGE_LOOP('',(#556,#557,#563,#564));
#566=FACE_OUTER_BOUND('',#565,.T.);
#567=ADVANCED_FACE('',(#566),#550,.T.);
#568=CARTESIAN_POINT('',(0.0,5.000004000000004,10.0));
#569=DIRECTION('',(0.0,0.0,1.0));
#570=DIRECTION('',(1.0,0.0,0.0));
#571=AXIS2_PLACEMENT_3D('',#568,#569,#570);
#572=PLANE('',#571);
#573=ORIENTED_EDGE('',*,*,#340,.F.);
#574=ORIENTED_EDGE('',*,*,#308,.F.);
#575=ORIENTED_EDGE('',*,*,#276,.F.);
#576=ORIENTED_EDGE('',*,*,#244,.F.);
#577=ORIENTED_EDGE('',*,*,#212,.F.);
#578=ORIENTED_EDGE('',*,*,#181,.F.);
#579=ORIENTED_EDGE('',*,*,#150,.F.);
#580=ORIENTED_EDGE('',*,*,#119,.F.);
#581=ORIENTED_EDGE('',*,*,#81,.F.);
#582=ORIENTED_EDGE('',*,*,#555,.F.);
#583=ORIENTED_EDGE('',*,*,#526,.F.);
#584=ORIENTED_EDGE('',*,*,#495,.F.);
#585=ORIENTED_EDGE('',*,*,#464,.F.);
#586=ORIENTED_EDGE('',*,*,#433,.F.);
#587=ORIENTED_EDGE('',*,*,#402,.F.);
#588=ORIENTED_EDGE('',*,*,#371,.F.);
#589=EDGE_LOOP('',(#573,#574,#575,#576,#577,#578,#579,#580,#581,#582,#583,#584,#585,#586,#587,#588));
#590=FACE_OUTER_BOUND('',#589,.T.);
#591=ADVANCED_FACE('',(#590),#572,.T.);
#592=CARTESIAN_POINT('',(0.0,5.000004000000004,0.0));
#593=DIRECTION('',(0.0,0.0,1.0));
#594=DIRECTION('',(1.0,0.0,0.0));
#595=AXIS2_PLACEMENT_3D('',#592,#593,#594);
#596=PLANE('',#595);
#597=ORIENTED_EDGE('',*,*,#354,.T.);
#598=ORIENTED_EDGE('',*,*,#385,.T.);
#599=ORIENTED_EDGE('',*,*,#416,.T.);
#600=ORIENTED_EDGE('',*,*,#447,.T.);
#601=ORIENTED_EDGE('',*,*,#478,.T.);
#602=ORIENTED_EDGE('',*,*,#509,.T.);
#603=ORIENTED_EDGE('',*,*,#540,.T.);
#604=ORIENTED_EDGE('',*,*,#562,.T.);
#605=ORIENTED_EDGE('',*,*,#97,.T.);
#606=ORIENTED_EDGE('',*,*,#133,.T.);
#607=ORIENTED_EDGE('',*,*,#164,.T.);
#608=ORIENTED_EDGE('',*,*,#195,.T.);
#609=ORIENTED_EDGE('',*,*,#226,.T.);
#610=ORIENTED_EDGE('',*,*,#259,.T.);
#611=ORIENTED_EDGE('',*,*,#290,.T.);
#612=ORIENTED_EDGE('',*,*,#323,.T.);
#613=EDGE_LOOP('',(#597,#598,#599,#600,#601,#602,#603,#604,#605,#606,#607,#608,#609,#610,#611,#612));
#614=FACE_OUTER_BOUND('',#613,.T.);
#615=ADVANCED_FACE('',(#614),#596,.F.);
#616=CLOSED_SHELL('',(#107,#138,#169,#200,#231,#264,#295,#328,#359,#390,#421,#452,#483,#514,#545,#567,#591,#615));
#617=MANIFOLD_SOLID_BREP('T\X2\011B\X0\leso1',#616);
#618=COLOUR_RGB('Plast (\X2\FFFD\X0\ern\X2\FFFD\X0\)',0.705882012844086,0.705882012844086,0.705882012844086);
#619=FILL_AREA_STYLE_COLOUR('Plast (\X2\FFFD\X0\ern\X2\FFFD\X0\)',#618);
#620=FILL_AREA_STYLE('Plast (\X2\FFFD\X0\ern\X2\FFFD\X0\)',(#619));
#621=SURFACE_STYLE_FILL_AREA(#620);
#622=SURFACE_SIDE_STYLE('Plast (\X2\FFFD\X0\ern\X2\FFFD\X0\)',(#621));
#623=SURFACE_STYLE_USAGE(.BOTH.,#622);
#624=PRESENTATION_STYLE_ASSIGNMENT((#623));
#625=STYLED_ITEM('',(#624),#617);
#626=MECHANICAL_DESIGN_GEOMETRIC_PRESENTATION_REPRESENTATION('',(#625),#36);
#627=ADVANCED_BREP_SHAPE_REPRESENTATION('ABSR',(#617),#36);
#628=SHAPE_REPRESENTATION_RELATIONSHIP('SRR','None',#627,#41);
ENDSEC;
END-ISO-10303-21;
