ISO-10303-21;
HEADER;
/* Generated by software containing ST-Developer
 * from STEP Tools, Inc. (www.steptools.com) 
 */

FILE_DESCRIPTION(
/* description */ (''),
/* implementation_level */ '2;1');

FILE_NAME(
/* name */ 'C:\\STEP\\820302.stp',
/* time_stamp */ '2014-03-15T11:07:53+01:00',
/* author */ ('jank'),
/* organization */ ('Alutec K&K'),
/* preprocessor_version */ 'ST-DEVELOPER v15.2',
/* originating_system */ 'Autodesk Inventor 2014',
/* authorisation */ '');

FILE_SCHEMA (('AUTOMOTIVE_DESIGN { 1 0 10303 214 3 1 1 }'));
ENDSEC;

DATA;
#10=SHAPE_REPRESENTATION_RELATIONSHIP('SRR','None',#523,#11);
#11=ADVANCED_BREP_SHAPE_REPRESENTATION($,(#302),#514);
#12=STYLED_ITEM($,(#532),#302);
#13=LINE($,#478,#31);
#14=LINE($,#480,#32);
#15=LINE($,#482,#33);
#16=LINE($,#483,#34);
#17=LINE($,#486,#35);
#18=LINE($,#488,#36);
#19=LINE($,#489,#37);
#20=LINE($,#492,#38);
#21=LINE($,#494,#39);
#22=LINE($,#495,#40);
#23=LINE($,#498,#41);
#24=LINE($,#500,#42);
#25=LINE($,#501,#43);
#26=LINE($,#504,#44);
#27=LINE($,#506,#45);
#28=LINE($,#507,#46);
#29=LINE($,#509,#47);
#30=LINE($,#510,#48);
#31=VECTOR($,#400,17.3205080756888);
#32=VECTOR($,#401,7.);
#33=VECTOR($,#402,17.3205080756888);
#34=VECTOR($,#403,7.);
#35=VECTOR($,#406,17.3205080756888);
#36=VECTOR($,#407,7.);
#37=VECTOR($,#408,17.3205080756888);
#38=VECTOR($,#411,17.3205080756888);
#39=VECTOR($,#412,7.);
#40=VECTOR($,#413,17.3205080756888);
#41=VECTOR($,#416,17.3205080756888);
#42=VECTOR($,#417,7.);
#43=VECTOR($,#418,17.3205080756888);
#44=VECTOR($,#421,17.3205080756888);
#45=VECTOR($,#422,7.);
#46=VECTOR($,#423,17.3205080756888);
#47=VECTOR($,#426,17.3205080756888);
#48=VECTOR($,#427,17.3205080756888);
#49=CYLINDRICAL_SURFACE($,#309,4.188);
#50=CYLINDRICAL_SURFACE($,#313,8.5);
#51=CYLINDRICAL_SURFACE($,#320,8.5);
#52=CYLINDRICAL_SURFACE($,#324,4.188);
#53=CYLINDRICAL_SURFACE($,#328,12.);
#54=PLANE($,#307);
#55=PLANE($,#318);
#56=PLANE($,#331);
#57=PLANE($,#332);
#58=PLANE($,#333);
#59=PLANE($,#334);
#60=PLANE($,#335);
#61=PLANE($,#336);
#62=PLANE($,#337);
#63=PLANE($,#338);
#64=PLANE($,#339);
#65=FACE_BOUND($,#102,.T.);
#66=FACE_BOUND($,#104,.T.);
#67=FACE_BOUND($,#106,.T.);
#68=FACE_BOUND($,#108,.T.);
#69=FACE_BOUND($,#110,.T.);
#70=FACE_BOUND($,#112,.T.);
#71=FACE_BOUND($,#114,.T.);
#72=FACE_BOUND($,#116,.T.);
#73=FACE_BOUND($,#118,.T.);
#74=FACE_BOUND($,#120,.T.);
#75=FACE_BOUND($,#124,.T.);
#76=FACE_BOUND($,#126,.T.);
#77=FACE_BOUND($,#134,.T.);
#78=FACE_BOUND($,#136,.T.);
#79=FACE_OUTER_BOUND($,#101,.T.);
#80=FACE_OUTER_BOUND($,#103,.T.);
#81=FACE_OUTER_BOUND($,#105,.T.);
#82=FACE_OUTER_BOUND($,#107,.T.);
#83=FACE_OUTER_BOUND($,#109,.T.);
#84=FACE_OUTER_BOUND($,#111,.T.);
#85=FACE_OUTER_BOUND($,#113,.T.);
#86=FACE_OUTER_BOUND($,#115,.T.);
#87=FACE_OUTER_BOUND($,#117,.T.);
#88=FACE_OUTER_BOUND($,#119,.T.);
#89=FACE_OUTER_BOUND($,#121,.T.);
#90=FACE_OUTER_BOUND($,#122,.T.);
#91=FACE_OUTER_BOUND($,#123,.T.);
#92=FACE_OUTER_BOUND($,#125,.T.);
#93=FACE_OUTER_BOUND($,#127,.T.);
#94=FACE_OUTER_BOUND($,#128,.T.);
#95=FACE_OUTER_BOUND($,#129,.T.);
#96=FACE_OUTER_BOUND($,#130,.T.);
#97=FACE_OUTER_BOUND($,#131,.T.);
#98=FACE_OUTER_BOUND($,#132,.T.);
#99=FACE_OUTER_BOUND($,#133,.T.);
#100=FACE_OUTER_BOUND($,#135,.T.);
#101=EDGE_LOOP($,(#209));
#102=EDGE_LOOP($,(#210));
#103=EDGE_LOOP($,(#211));
#104=EDGE_LOOP($,(#212));
#105=EDGE_LOOP($,(#213));
#106=EDGE_LOOP($,(#214));
#107=EDGE_LOOP($,(#215));
#108=EDGE_LOOP($,(#216));
#109=EDGE_LOOP($,(#217));
#110=EDGE_LOOP($,(#218));
#111=EDGE_LOOP($,(#219));
#112=EDGE_LOOP($,(#220));
#113=EDGE_LOOP($,(#221));
#114=EDGE_LOOP($,(#222));
#115=EDGE_LOOP($,(#223));
#116=EDGE_LOOP($,(#224));
#117=EDGE_LOOP($,(#225));
#118=EDGE_LOOP($,(#226));
#119=EDGE_LOOP($,(#227));
#120=EDGE_LOOP($,(#228));
#121=EDGE_LOOP($,(#229));
#122=EDGE_LOOP($,(#230));
#123=EDGE_LOOP($,(#231));
#124=EDGE_LOOP($,(#232));
#125=EDGE_LOOP($,(#233));
#126=EDGE_LOOP($,(#234));
#127=EDGE_LOOP($,(#235,#236,#237,#238));
#128=EDGE_LOOP($,(#239,#240,#241,#242));
#129=EDGE_LOOP($,(#243,#244,#245,#246));
#130=EDGE_LOOP($,(#247,#248,#249,#250));
#131=EDGE_LOOP($,(#251,#252,#253,#254));
#132=EDGE_LOOP($,(#255,#256,#257,#258));
#133=EDGE_LOOP($,(#259,#260,#261,#262,#263,#264));
#134=EDGE_LOOP($,(#265));
#135=EDGE_LOOP($,(#266,#267,#268,#269,#270,#271));
#136=EDGE_LOOP($,(#272));
#137=CIRCLE($,#305,4.188);
#138=CIRCLE($,#306,4.688);
#139=CIRCLE($,#308,8.);
#140=CIRCLE($,#310,4.188);
#141=CIRCLE($,#312,8.5);
#142=CIRCLE($,#314,8.5);
#143=CIRCLE($,#316,8.);
#144=CIRCLE($,#317,8.5);
#145=CIRCLE($,#319,4.688);
#146=CIRCLE($,#321,8.5);
#147=CIRCLE($,#323,4.188);
#148=CIRCLE($,#325,4.188);
#149=CIRCLE($,#329,12.);
#150=CIRCLE($,#330,12.);
#151=VERTEX_POINT($,#434);
#152=VERTEX_POINT($,#436);
#153=VERTEX_POINT($,#439);
#154=VERTEX_POINT($,#442);
#155=VERTEX_POINT($,#445);
#156=VERTEX_POINT($,#448);
#157=VERTEX_POINT($,#451);
#158=VERTEX_POINT($,#453);
#159=VERTEX_POINT($,#456);
#160=VERTEX_POINT($,#459);
#161=VERTEX_POINT($,#462);
#162=VERTEX_POINT($,#465);
#163=VERTEX_POINT($,#470);
#164=VERTEX_POINT($,#472);
#165=VERTEX_POINT($,#476);
#166=VERTEX_POINT($,#477);
#167=VERTEX_POINT($,#479);
#168=VERTEX_POINT($,#481);
#169=VERTEX_POINT($,#485);
#170=VERTEX_POINT($,#487);
#171=VERTEX_POINT($,#491);
#172=VERTEX_POINT($,#493);
#173=VERTEX_POINT($,#497);
#174=VERTEX_POINT($,#499);
#175=VERTEX_POINT($,#503);
#176=VERTEX_POINT($,#505);
#177=EDGE_CURVE($,#151,#151,#137,.T.);
#178=EDGE_CURVE($,#152,#152,#138,.T.);
#179=EDGE_CURVE($,#153,#153,#139,.T.);
#180=EDGE_CURVE($,#154,#154,#140,.T.);
#181=EDGE_CURVE($,#155,#155,#141,.T.);
#182=EDGE_CURVE($,#156,#156,#142,.T.);
#183=EDGE_CURVE($,#157,#157,#143,.T.);
#184=EDGE_CURVE($,#158,#158,#144,.T.);
#185=EDGE_CURVE($,#159,#159,#145,.T.);
#186=EDGE_CURVE($,#160,#160,#146,.T.);
#187=EDGE_CURVE($,#161,#161,#147,.T.);
#188=EDGE_CURVE($,#162,#162,#148,.T.);
#189=EDGE_CURVE($,#163,#163,#149,.T.);
#190=EDGE_CURVE($,#164,#164,#150,.T.);
#191=EDGE_CURVE($,#165,#166,#13,.T.);
#192=EDGE_CURVE($,#167,#166,#14,.T.);
#193=EDGE_CURVE($,#168,#167,#15,.T.);
#194=EDGE_CURVE($,#168,#165,#16,.T.);
#195=EDGE_CURVE($,#166,#169,#17,.T.);
#196=EDGE_CURVE($,#170,#169,#18,.T.);
#197=EDGE_CURVE($,#167,#170,#19,.T.);
#198=EDGE_CURVE($,#169,#171,#20,.T.);
#199=EDGE_CURVE($,#172,#171,#21,.T.);
#200=EDGE_CURVE($,#170,#172,#22,.T.);
#201=EDGE_CURVE($,#171,#173,#23,.T.);
#202=EDGE_CURVE($,#174,#173,#24,.T.);
#203=EDGE_CURVE($,#172,#174,#25,.T.);
#204=EDGE_CURVE($,#173,#175,#26,.T.);
#205=EDGE_CURVE($,#176,#175,#27,.T.);
#206=EDGE_CURVE($,#174,#176,#28,.T.);
#207=EDGE_CURVE($,#175,#165,#29,.T.);
#208=EDGE_CURVE($,#176,#168,#30,.T.);
#209=ORIENTED_EDGE($,*,*,#177,.T.);
#210=ORIENTED_EDGE($,*,*,#178,.T.);
#211=ORIENTED_EDGE($,*,*,#179,.F.);
#212=ORIENTED_EDGE($,*,*,#178,.F.);
#213=ORIENTED_EDGE($,*,*,#180,.F.);
#214=ORIENTED_EDGE($,*,*,#177,.F.);
#215=ORIENTED_EDGE($,*,*,#179,.T.);
#216=ORIENTED_EDGE($,*,*,#181,.T.);
#217=ORIENTED_EDGE($,*,*,#182,.F.);
#218=ORIENTED_EDGE($,*,*,#181,.F.);
#219=ORIENTED_EDGE($,*,*,#183,.T.);
#220=ORIENTED_EDGE($,*,*,#184,.T.);
#221=ORIENTED_EDGE($,*,*,#183,.F.);
#222=ORIENTED_EDGE($,*,*,#185,.F.);
#223=ORIENTED_EDGE($,*,*,#186,.F.);
#224=ORIENTED_EDGE($,*,*,#184,.F.);
#225=ORIENTED_EDGE($,*,*,#187,.T.);
#226=ORIENTED_EDGE($,*,*,#185,.T.);
#227=ORIENTED_EDGE($,*,*,#188,.F.);
#228=ORIENTED_EDGE($,*,*,#187,.F.);
#229=ORIENTED_EDGE($,*,*,#180,.T.);
#230=ORIENTED_EDGE($,*,*,#188,.T.);
#231=ORIENTED_EDGE($,*,*,#189,.T.);
#232=ORIENTED_EDGE($,*,*,#190,.F.);
#233=ORIENTED_EDGE($,*,*,#189,.F.);
#234=ORIENTED_EDGE($,*,*,#186,.T.);
#235=ORIENTED_EDGE($,*,*,#191,.T.);
#236=ORIENTED_EDGE($,*,*,#192,.F.);
#237=ORIENTED_EDGE($,*,*,#193,.F.);
#238=ORIENTED_EDGE($,*,*,#194,.T.);
#239=ORIENTED_EDGE($,*,*,#195,.T.);
#240=ORIENTED_EDGE($,*,*,#196,.F.);
#241=ORIENTED_EDGE($,*,*,#197,.F.);
#242=ORIENTED_EDGE($,*,*,#192,.T.);
#243=ORIENTED_EDGE($,*,*,#198,.T.);
#244=ORIENTED_EDGE($,*,*,#199,.F.);
#245=ORIENTED_EDGE($,*,*,#200,.F.);
#246=ORIENTED_EDGE($,*,*,#196,.T.);
#247=ORIENTED_EDGE($,*,*,#201,.T.);
#248=ORIENTED_EDGE($,*,*,#202,.F.);
#249=ORIENTED_EDGE($,*,*,#203,.F.);
#250=ORIENTED_EDGE($,*,*,#199,.T.);
#251=ORIENTED_EDGE($,*,*,#204,.T.);
#252=ORIENTED_EDGE($,*,*,#205,.F.);
#253=ORIENTED_EDGE($,*,*,#206,.F.);
#254=ORIENTED_EDGE($,*,*,#202,.T.);
#255=ORIENTED_EDGE($,*,*,#207,.T.);
#256=ORIENTED_EDGE($,*,*,#194,.F.);
#257=ORIENTED_EDGE($,*,*,#208,.F.);
#258=ORIENTED_EDGE($,*,*,#205,.T.);
#259=ORIENTED_EDGE($,*,*,#191,.F.);
#260=ORIENTED_EDGE($,*,*,#207,.F.);
#261=ORIENTED_EDGE($,*,*,#204,.F.);
#262=ORIENTED_EDGE($,*,*,#201,.F.);
#263=ORIENTED_EDGE($,*,*,#198,.F.);
#264=ORIENTED_EDGE($,*,*,#195,.F.);
#265=ORIENTED_EDGE($,*,*,#190,.T.);
#266=ORIENTED_EDGE($,*,*,#208,.T.);
#267=ORIENTED_EDGE($,*,*,#193,.T.);
#268=ORIENTED_EDGE($,*,*,#197,.T.);
#269=ORIENTED_EDGE($,*,*,#200,.T.);
#270=ORIENTED_EDGE($,*,*,#203,.T.);
#271=ORIENTED_EDGE($,*,*,#206,.T.);
#272=ORIENTED_EDGE($,*,*,#182,.T.);
#273=CONICAL_SURFACE($,#304,4.438,45.);
#274=CONICAL_SURFACE($,#311,8.25,45.);
#275=CONICAL_SURFACE($,#315,8.25,45.0000000000001);
#276=CONICAL_SURFACE($,#322,4.438,45.0000000000001);
#277=CONICAL_SURFACE($,#326,3.7692,59.0000000000001);
#278=CONICAL_SURFACE($,#327,3.7692,59.);
#279=ADVANCED_FACE($,(#79,#65),#273,.F.);
#280=ADVANCED_FACE($,(#80,#66),#54,.F.);
#281=ADVANCED_FACE($,(#81,#67),#49,.F.);
#282=ADVANCED_FACE($,(#82,#68),#274,.T.);
#283=ADVANCED_FACE($,(#83,#69),#50,.T.);
#284=ADVANCED_FACE($,(#84,#70),#275,.T.);
#285=ADVANCED_FACE($,(#85,#71),#55,.F.);
#286=ADVANCED_FACE($,(#86,#72),#51,.T.);
#287=ADVANCED_FACE($,(#87,#73),#276,.F.);
#288=ADVANCED_FACE($,(#88,#74),#52,.F.);
#289=ADVANCED_FACE($,(#89),#277,.F.);
#290=ADVANCED_FACE($,(#90),#278,.F.);
#291=ADVANCED_FACE($,(#91,#75),#53,.T.);
#292=ADVANCED_FACE($,(#92,#76),#56,.F.);
#293=ADVANCED_FACE($,(#93),#57,.T.);
#294=ADVANCED_FACE($,(#94),#58,.T.);
#295=ADVANCED_FACE($,(#95),#59,.T.);
#296=ADVANCED_FACE($,(#96),#60,.T.);
#297=ADVANCED_FACE($,(#97),#61,.T.);
#298=ADVANCED_FACE($,(#98),#62,.T.);
#299=ADVANCED_FACE($,(#99,#77),#63,.T.);
#300=ADVANCED_FACE($,(#100,#78),#64,.F.);
#301=CLOSED_SHELL($,(#279,#280,#281,#282,#283,#284,#285,#286,#287,#288,
#289,#290,#291,#292,#293,#294,#295,#296,#297,#298,#299,#300));
#302=MANIFOLD_SOLID_BREP('T\X2\011B\X0\leso1',#301);
#303=AXIS2_PLACEMENT_3D('placement',#432,#340,#341);
#304=AXIS2_PLACEMENT_3D($,#433,#342,#343);
#305=AXIS2_PLACEMENT_3D($,#435,#344,#345);
#306=AXIS2_PLACEMENT_3D($,#437,#346,#347);
#307=AXIS2_PLACEMENT_3D($,#438,#348,#349);
#308=AXIS2_PLACEMENT_3D($,#440,#350,#351);
#309=AXIS2_PLACEMENT_3D($,#441,#352,#353);
#310=AXIS2_PLACEMENT_3D($,#443,#354,#355);
#311=AXIS2_PLACEMENT_3D($,#444,#356,#357);
#312=AXIS2_PLACEMENT_3D($,#446,#358,#359);
#313=AXIS2_PLACEMENT_3D($,#447,#360,#361);
#314=AXIS2_PLACEMENT_3D($,#449,#362,#363);
#315=AXIS2_PLACEMENT_3D($,#450,#364,#365);
#316=AXIS2_PLACEMENT_3D($,#452,#366,#367);
#317=AXIS2_PLACEMENT_3D($,#454,#368,#369);
#318=AXIS2_PLACEMENT_3D($,#455,#370,#371);
#319=AXIS2_PLACEMENT_3D($,#457,#372,#373);
#320=AXIS2_PLACEMENT_3D($,#458,#374,#375);
#321=AXIS2_PLACEMENT_3D($,#460,#376,#377);
#322=AXIS2_PLACEMENT_3D($,#461,#378,#379);
#323=AXIS2_PLACEMENT_3D($,#463,#380,#381);
#324=AXIS2_PLACEMENT_3D($,#464,#382,#383);
#325=AXIS2_PLACEMENT_3D($,#466,#384,#385);
#326=AXIS2_PLACEMENT_3D($,#467,#386,#387);
#327=AXIS2_PLACEMENT_3D($,#468,#388,#389);
#328=AXIS2_PLACEMENT_3D($,#469,#390,#391);
#329=AXIS2_PLACEMENT_3D($,#471,#392,#393);
#330=AXIS2_PLACEMENT_3D($,#473,#394,#395);
#331=AXIS2_PLACEMENT_3D($,#474,#396,#397);
#332=AXIS2_PLACEMENT_3D($,#475,#398,#399);
#333=AXIS2_PLACEMENT_3D($,#484,#404,#405);
#334=AXIS2_PLACEMENT_3D($,#490,#409,#410);
#335=AXIS2_PLACEMENT_3D($,#496,#414,#415);
#336=AXIS2_PLACEMENT_3D($,#502,#419,#420);
#337=AXIS2_PLACEMENT_3D($,#508,#424,#425);
#338=AXIS2_PLACEMENT_3D($,#511,#428,#429);
#339=AXIS2_PLACEMENT_3D($,#512,#430,#431);
#340=DIRECTION('axis',(0.,0.,1.));
#341=DIRECTION('refdir',(1.,0.,0.));
#342=DIRECTION('center_axis',(-1.,0.,-2.22044604925031E-016));
#343=DIRECTION('ref_axis',(2.22044604925031E-016,0.,-1.));
#344=DIRECTION('center_axis',(1.,0.,2.22044604925031E-016));
#345=DIRECTION('ref_axis',(2.22044604925031E-016,0.,-1.));
#346=DIRECTION('center_axis',(-1.,0.,-2.22044604925031E-016));
#347=DIRECTION('ref_axis',(2.22044604925031E-016,0.,-1.));
#348=DIRECTION('center_axis',(1.,0.,2.22044604925031E-016));
#349=DIRECTION('ref_axis',(0.,0.,-1.));
#350=DIRECTION('center_axis',(1.,0.,2.22044604925031E-016));
#351=DIRECTION('ref_axis',(2.22044604925031E-016,0.,-1.));
#352=DIRECTION('center_axis',(-1.,0.,-2.22044604925031E-016));
#353=DIRECTION('ref_axis',(2.22044604925031E-016,-3.97644349794111E-016,
-1.));
#354=DIRECTION('center_axis',(-1.,0.,-2.22044604925031E-016));
#355=DIRECTION('ref_axis',(-2.22044604925031E-016,0.,1.));
#356=DIRECTION('center_axis',(1.,0.,2.22044604925031E-016));
#357=DIRECTION('ref_axis',(2.22044604925031E-016,0.,-1.));
#358=DIRECTION('center_axis',(-1.,0.,-2.22044604925031E-016));
#359=DIRECTION('ref_axis',(2.22044604925031E-016,0.,-1.));
#360=DIRECTION('center_axis',(-1.,0.,-2.22044604925031E-016));
#361=DIRECTION('ref_axis',(2.22044604925031E-016,0.,-1.));
#362=DIRECTION('center_axis',(1.,0.,2.22044604925031E-016));
#363=DIRECTION('ref_axis',(2.22044604925031E-016,0.,-1.));
#364=DIRECTION('center_axis',(-1.,0.,-2.22044604925031E-016));
#365=DIRECTION('ref_axis',(-2.22044604925031E-016,0.,1.));
#366=DIRECTION('center_axis',(-1.,0.,-2.22044604925031E-016));
#367=DIRECTION('ref_axis',(-2.22044604925031E-016,0.,1.));
#368=DIRECTION('center_axis',(1.,0.,2.22044604925031E-016));
#369=DIRECTION('ref_axis',(-2.22044604925031E-016,0.,1.));
#370=DIRECTION('center_axis',(-1.,0.,-2.22044604925031E-016));
#371=DIRECTION('ref_axis',(0.,0.,1.));
#372=DIRECTION('center_axis',(1.,0.,2.22044604925031E-016));
#373=DIRECTION('ref_axis',(-2.22044604925031E-016,0.,1.));
#374=DIRECTION('center_axis',(1.,0.,2.22044604925031E-016));
#375=DIRECTION('ref_axis',(-2.22044604925031E-016,0.,1.));
#376=DIRECTION('center_axis',(-1.,0.,-2.22044604925031E-016));
#377=DIRECTION('ref_axis',(-2.22044604925031E-016,0.,1.));
#378=DIRECTION('center_axis',(1.,0.,2.22044604925031E-016));
#379=DIRECTION('ref_axis',(-2.22044604925031E-016,0.,1.));
#380=DIRECTION('center_axis',(-1.,0.,-2.22044604925031E-016));
#381=DIRECTION('ref_axis',(-2.22044604925031E-016,0.,1.));
#382=DIRECTION('center_axis',(1.,0.,2.22044604925031E-016));
#383=DIRECTION('ref_axis',(-2.22044604925031E-016,-3.74902688319908E-016,
1.));
#384=DIRECTION('center_axis',(1.,0.,2.22044604925031E-016));
#385=DIRECTION('ref_axis',(2.22044604925031E-016,0.,-1.));
#386=DIRECTION('center_axis',(-1.,3.28642087574843E-016,-4.83458791886987E-016));
#387=DIRECTION('ref_axis',(2.02474614990167E-016,-0.581108581114919,-0.813826036051075));
#388=DIRECTION('center_axis',(1.,-1.05165031052775E-016,7.61163379589289E-017));
#389=DIRECTION('ref_axis',(-1.23057759577823E-016,-0.581108581114919,0.813826036051075));
#390=DIRECTION('center_axis',(1.,0.,2.22044604925031E-016));
#391=DIRECTION('ref_axis',(-2.22044604925031E-016,0.,1.));
#392=DIRECTION('center_axis',(-1.,0.,-2.22044604925031E-016));
#393=DIRECTION('ref_axis',(-2.22044604925031E-016,0.,1.));
#394=DIRECTION('center_axis',(-1.,0.,-2.22044604925031E-016));
#395=DIRECTION('ref_axis',(-2.22044604925031E-016,0.,1.));
#396=DIRECTION('center_axis',(-1.,0.,-2.22044604925031E-016));
#397=DIRECTION('ref_axis',(0.,0.,1.));
#398=DIRECTION('center_axis',(2.22044604925031E-016,0.,-1.));
#399=DIRECTION('ref_axis',(-1.,0.,0.));
#400=DIRECTION($,(0.,-1.,0.));
#401=DIRECTION($,(1.,0.,2.22044604925031E-016));
#402=DIRECTION($,(0.,-1.,0.));
#403=DIRECTION($,(1.,0.,2.22044604925031E-016));
#404=DIRECTION('center_axis',(1.11022302462516E-016,-0.866025403784439,
-0.5));
#405=DIRECTION('ref_axis',(-1.,0.,0.));
#406=DIRECTION($,(-1.92296268638356E-016,-0.5,0.866025403784439));
#407=DIRECTION($,(1.,0.,2.22044604925031E-016));
#408=DIRECTION($,(-1.92296268638356E-016,-0.5,0.866025403784439));
#409=DIRECTION('center_axis',(-1.11022302462516E-016,-0.866025403784439,
0.5));
#410=DIRECTION('ref_axis',(-1.,0.,-2.22044604925031E-016));
#411=DIRECTION($,(-1.92296268638356E-016,0.5,0.866025403784439));
#412=DIRECTION($,(1.,0.,2.22044604925031E-016));
#413=DIRECTION($,(-1.92296268638356E-016,0.5,0.866025403784439));
#414=DIRECTION('center_axis',(-2.22044604925031E-016,0.,1.));
#415=DIRECTION('ref_axis',(1.,0.,0.));
#416=DIRECTION($,(0.,1.,0.));
#417=DIRECTION($,(1.,0.,2.22044604925031E-016));
#418=DIRECTION($,(0.,1.,0.));
#419=DIRECTION('center_axis',(-1.11022302462516E-016,0.866025403784439,
0.5));
#420=DIRECTION('ref_axis',(1.,0.,0.));
#421=DIRECTION($,(1.92296268638356E-016,0.5,-0.866025403784439));
#422=DIRECTION($,(1.,0.,2.22044604925031E-016));
#423=DIRECTION($,(1.92296268638356E-016,0.5,-0.866025403784439));
#424=DIRECTION('center_axis',(1.11022302462516E-016,0.866025403784439,-0.5));
#425=DIRECTION('ref_axis',(1.,0.,2.22044604925031E-016));
#426=DIRECTION($,(1.92296268638356E-016,-0.5,-0.866025403784439));
#427=DIRECTION($,(1.92296268638356E-016,-0.5,-0.866025403784439));
#428=DIRECTION('center_axis',(1.,0.,2.22044604925031E-016));
#429=DIRECTION('ref_axis',(0.,0.,-1.));
#430=DIRECTION('center_axis',(1.,0.,2.22044604925031E-016));
#431=DIRECTION('ref_axis',(2.22044604925031E-016,0.,-1.));
#432=CARTESIAN_POINT('',(0.,0.,0.));
#433=CARTESIAN_POINT('Origin',(-19.55,2.,-4.34097202628436E-015));
#434=CARTESIAN_POINT('',(-19.3,2.,4.188));
#435=CARTESIAN_POINT('Origin',(-19.3,2.,-4.2854608750531E-015));
#436=CARTESIAN_POINT('',(-19.8,2.,4.688));
#437=CARTESIAN_POINT('Origin',(-19.8,2.,-4.39648317751562E-015));
#438=CARTESIAN_POINT('Origin',(-19.8,2.,-4.39648317751562E-015));
#439=CARTESIAN_POINT('',(-19.8,2.,8.));
#440=CARTESIAN_POINT('Origin',(-19.8,2.,-4.39648317751562E-015));
#441=CARTESIAN_POINT('Origin',(-8.55,2.,-3.56381590904675E-015));
#442=CARTESIAN_POINT('',(2.2,2.,4.188));
#443=CARTESIAN_POINT('Origin',(2.2,2.,4.88498130835069E-016));
#444=CARTESIAN_POINT('Origin',(-19.55,2.,-4.34097202628436E-015));
#445=CARTESIAN_POINT('',(-19.3,2.,8.5));
#446=CARTESIAN_POINT('Origin',(-19.3,2.,-4.2854608750531E-015));
#447=CARTESIAN_POINT('Origin',(0.,2.,0.));
#448=CARTESIAN_POINT('',(-1.88737914186277E-015,2.,8.5));
#449=CARTESIAN_POINT('Origin',(0.,2.,0.));
#450=CARTESIAN_POINT('Origin',(43.55,0.,9.67004254448511E-015));
#451=CARTESIAN_POINT('',(43.8,-9.796851E-016,-7.99999999999999));
#452=CARTESIAN_POINT('Origin',(43.8,0.,9.72555369571637E-015));
#453=CARTESIAN_POINT('',(43.3,1.040915E-015,-8.49999999999999));
#454=CARTESIAN_POINT('Origin',(43.3,0.,9.61453139325386E-015));
#455=CARTESIAN_POINT('Origin',(43.8,0.,9.72555369571637E-015));
#456=CARTESIAN_POINT('',(43.8,5.740955E-016,-4.68799999999999));
#457=CARTESIAN_POINT('Origin',(43.8,0.,9.72555369571637E-015));
#458=CARTESIAN_POINT('Origin',(8.,0.,1.77635683940025E-015));
#459=CARTESIAN_POINT('',(8.,1.04095E-015,-8.5));
#460=CARTESIAN_POINT('Origin',(8.,0.,1.77635683940025E-015));
#461=CARTESIAN_POINT('Origin',(43.55,0.,9.67004254448511E-015));
#462=CARTESIAN_POINT('',(43.3,-5.128651E-016,-4.18799999999999));
#463=CARTESIAN_POINT('Origin',(43.3,0.,9.61453139325386E-015));
#464=CARTESIAN_POINT('Origin',(31.55,1.05721035868377E-015,7.00550728538474E-015));
#465=CARTESIAN_POINT('',(19.8,0.,-4.188));
#466=CARTESIAN_POINT('Origin',(19.8,0.,4.39648317751562E-015));
#467=CARTESIAN_POINT('Origin',(2.45164042724874,2.,1.65459655471184E-015));
#468=CARTESIAN_POINT('Origin',(19.5483595727513,2.77555756156289E-016,4.89571929057658E-015));
#469=CARTESIAN_POINT('Origin',(7.,0.,1.55431223447522E-015));
#470=CARTESIAN_POINT('',(8.,1.469576E-015,-12.));
#471=CARTESIAN_POINT('Origin',(8.,0.,1.77635683940025E-015));
#472=CARTESIAN_POINT('',(7.,1.469576E-015,-12.));
#473=CARTESIAN_POINT('Origin',(7.,0.,1.55431223447522E-015));
#474=CARTESIAN_POINT('Origin',(8.,0.,1.77635683940025E-015));
#475=CARTESIAN_POINT('Origin',(3.33066907387547E-015,8.66025403784437,-15.));
#476=CARTESIAN_POINT('',(7.00000000000001,8.66025403784437,-15.));
#477=CARTESIAN_POINT('',(7.00000000000001,-8.66025403784439,-15.));
#478=CARTESIAN_POINT($,(7.00000000000001,8.66025403784437,-15.));
#479=CARTESIAN_POINT('',(3.33066907387547E-015,-8.66025403784439,-15.));
#480=CARTESIAN_POINT($,(3.33066907387547E-015,-8.66025403784439,-15.));
#481=CARTESIAN_POINT('',(3.33066907387547E-015,8.66025403784437,-15.));
#482=CARTESIAN_POINT($,(3.33066907387547E-015,8.66025403784437,-15.));
#483=CARTESIAN_POINT($,(3.33066907387547E-015,8.66025403784437,-15.));
#484=CARTESIAN_POINT('Origin',(3.33066907387547E-015,-8.66025403784439,
-15.));
#485=CARTESIAN_POINT('',(7.,-17.3205080756888,-6.62026676552478E-015));
#486=CARTESIAN_POINT($,(7.00000000000001,-8.66025403784439,-15.));
#487=CARTESIAN_POINT('',(1.81512116448346E-030,-17.3205080756888,-8.174579E-015));
#488=CARTESIAN_POINT($,(1.81512116448346E-030,-17.3205080756888,-8.174579E-015));
#489=CARTESIAN_POINT($,(3.33066907387547E-015,-8.66025403784439,-15.));
#490=CARTESIAN_POINT('Origin',(1.81512116448346E-030,-17.3205080756888,
-8.174579E-015));
#491=CARTESIAN_POINT('',(7.,-8.66025403784439,15.));
#492=CARTESIAN_POINT($,(7.,-17.3205080756888,-6.62026676552478E-015));
#493=CARTESIAN_POINT('',(-3.33066907387547E-015,-8.66025403784439,15.));
#494=CARTESIAN_POINT($,(-3.33066907387547E-015,-8.66025403784439,15.));
#495=CARTESIAN_POINT($,(1.81512116448346E-030,-17.3205080756888,-8.174579E-015));
#496=CARTESIAN_POINT('Origin',(-3.33066907387547E-015,-8.66025403784439,
15.));
#497=CARTESIAN_POINT('',(7.,8.66025403784437,15.));
#498=CARTESIAN_POINT($,(7.,-8.66025403784439,15.));
#499=CARTESIAN_POINT('',(-3.33066907387547E-015,8.66025403784437,15.));
#500=CARTESIAN_POINT($,(-3.33066907387547E-015,8.66025403784437,15.));
#501=CARTESIAN_POINT($,(-3.33066907387547E-015,-8.66025403784439,15.));
#502=CARTESIAN_POINT('Origin',(-3.33066907387547E-015,8.66025403784437,
15.));
#503=CARTESIAN_POINT('',(7.,17.3205080756888,3.73323523447522E-015));
#504=CARTESIAN_POINT($,(7.,8.66025403784437,15.));
#505=CARTESIAN_POINT('',(-4.83818096697064E-031,17.3205080756888,2.178923E-015));
#506=CARTESIAN_POINT($,(-4.83818096697064E-031,17.3205080756888,2.178923E-015));
#507=CARTESIAN_POINT($,(-3.33066907387547E-015,8.66025403784437,15.));
#508=CARTESIAN_POINT('Origin',(-4.83818096697064E-031,17.3205080756888,
2.178923E-015));
#509=CARTESIAN_POINT($,(7.,17.3205080756888,3.73323523447522E-015));
#510=CARTESIAN_POINT($,(-4.83818096697064E-031,17.3205080756888,2.178923E-015));
#511=CARTESIAN_POINT('Origin',(7.,-8.587407E-015,-6.21724876552478E-015));
#512=CARTESIAN_POINT('Origin',(1.6948182857135E-030,-8.604228E-015,-7.632783E-015));
#513=UNCERTAINTY_MEASURE_WITH_UNIT(LENGTH_MEASURE(0.01),#515,
'DISTANCE_ACCURACY_VALUE',
'Maximum model space distance between geometric entities at asserted c
onnectivities');
#514=(
GEOMETRIC_REPRESENTATION_CONTEXT(3)
GLOBAL_UNCERTAINTY_ASSIGNED_CONTEXT((#513))
GLOBAL_UNIT_ASSIGNED_CONTEXT((#515,#518,#516))
REPRESENTATION_CONTEXT('','3D')
);
#515=(
LENGTH_UNIT()
NAMED_UNIT(*)
SI_UNIT(.MILLI.,.METRE.)
);
#516=(
NAMED_UNIT(*)
SI_UNIT($,.STERADIAN.)
SOLID_ANGLE_UNIT()
);
#517=DIMENSIONAL_EXPONENTS(0.,0.,0.,0.,0.,0.,0.);
#518=(
CONVERSION_BASED_UNIT('degree',#520)
NAMED_UNIT(#517)
PLANE_ANGLE_UNIT()
);
#519=(
NAMED_UNIT(*)
PLANE_ANGLE_UNIT()
SI_UNIT($,.RADIAN.)
);
#520=PLANE_ANGLE_MEASURE_WITH_UNIT(PLANE_ANGLE_MEASURE(0.01745329252),#519);
#521=SHAPE_DEFINITION_REPRESENTATION(#522,#523);
#522=PRODUCT_DEFINITION_SHAPE('',$,#525);
#523=SHAPE_REPRESENTATION('',(#303),#514);
#524=PRODUCT_DEFINITION_CONTEXT('3D Mechanical Parts',#528,'design');
#525=PRODUCT_DEFINITION('820302','820302',#526,#524);
#526=PRODUCT_DEFINITION_FORMATION('',$,#530);
#527=APPLICATION_PROTOCOL_DEFINITION('international standard',
'automotive_design',2009,#528);
#528=APPLICATION_CONTEXT(
'Core Data for Automotive Mechanical Design Process');
#529=PRODUCT_CONTEXT('3D Mechanical Parts',#528,'mechanical');
#530=PRODUCT('820302','820302',$,(#529));
#531=PRESENTATION_STYLE_ASSIGNMENT((#533));
#532=PRESENTATION_STYLE_ASSIGNMENT((#534));
#533=SURFACE_STYLE_USAGE(.BOTH.,#535);
#534=SURFACE_STYLE_USAGE(.BOTH.,#536);
#535=SURFACE_SIDE_STYLE($,(#537));
#536=SURFACE_SIDE_STYLE($,(#538));
#537=SURFACE_STYLE_FILL_AREA(#539);
#538=SURFACE_STYLE_FILL_AREA(#540);
#539=FILL_AREA_STYLE($,(#541));
#540=FILL_AREA_STYLE($,(#542));
#541=FILL_AREA_STYLE_COLOUR($,#543);
#542=FILL_AREA_STYLE_COLOUR($,#544);
#543=COLOUR_RGB('',0.749019607843137,0.749019607843137,0.749019607843137);
#544=COLOUR_RGB('',0.847058823529412,0.83921568627451,0.83921568627451);
ENDSEC;
END-ISO-10303-21;
