ISO-10303-21;
HEADER;
/* Generated by software containing ST-Developer
 * from STEP Tools, Inc. (www.steptools.com) 
 */

FILE_DESCRIPTION(
/* description */ (''),
/* implementation_level */ '2;1');

FILE_NAME(
/* name */ 'C:\\STEP\\820301.stp',
/* time_stamp */ '2014-03-15T11:07:17+01:00',
/* author */ ('jank'),
/* organization */ ('Alutec K&K'),
/* preprocessor_version */ 'ST-DEVELOPER v15.2',
/* originating_system */ 'Autodesk Inventor 2014',
/* authorisation */ '');

FILE_SCHEMA (('AUTOMOTIVE_DESIGN { 1 0 10303 214 3 1 1 }'));
ENDSEC;

DATA;
#10=SHAPE_REPRESENTATION_RELATIONSHIP('SRR','None',#315,#11);
#11=ADVANCED_BREP_SHAPE_REPRESENTATION($,(#170),#306);
#12=STYLED_ITEM($,(#324),#170);
#13=CYLINDRICAL_SURFACE($,#177,4.188);
#14=CYLINDRICAL_SURFACE($,#181,8.5);
#15=CYLINDRICAL_SURFACE($,#188,4.188);
#16=CYLINDRICAL_SURFACE($,#192,8.50000000000001);
#17=CYLINDRICAL_SURFACE($,#198,12.5);
#18=PLANE($,#175);
#19=PLANE($,#186);
#20=PLANE($,#196);
#21=PLANE($,#200);
#22=FACE_BOUND($,#51,.T.);
#23=FACE_BOUND($,#53,.T.);
#24=FACE_BOUND($,#55,.T.);
#25=FACE_BOUND($,#57,.T.);
#26=FACE_BOUND($,#59,.T.);
#27=FACE_BOUND($,#61,.T.);
#28=FACE_BOUND($,#63,.T.);
#29=FACE_BOUND($,#65,.T.);
#30=FACE_BOUND($,#67,.T.);
#31=FACE_BOUND($,#69,.T.);
#32=FACE_BOUND($,#73,.T.);
#33=FACE_BOUND($,#75,.T.);
#34=FACE_BOUND($,#77,.T.);
#35=FACE_OUTER_BOUND($,#50,.T.);
#36=FACE_OUTER_BOUND($,#52,.T.);
#37=FACE_OUTER_BOUND($,#54,.T.);
#38=FACE_OUTER_BOUND($,#56,.T.);
#39=FACE_OUTER_BOUND($,#58,.T.);
#40=FACE_OUTER_BOUND($,#60,.T.);
#41=FACE_OUTER_BOUND($,#62,.T.);
#42=FACE_OUTER_BOUND($,#64,.T.);
#43=FACE_OUTER_BOUND($,#66,.T.);
#44=FACE_OUTER_BOUND($,#68,.T.);
#45=FACE_OUTER_BOUND($,#70,.T.);
#46=FACE_OUTER_BOUND($,#71,.T.);
#47=FACE_OUTER_BOUND($,#72,.T.);
#48=FACE_OUTER_BOUND($,#74,.T.);
#49=FACE_OUTER_BOUND($,#76,.T.);
#50=EDGE_LOOP($,(#120));
#51=EDGE_LOOP($,(#121));
#52=EDGE_LOOP($,(#122));
#53=EDGE_LOOP($,(#123));
#54=EDGE_LOOP($,(#124));
#55=EDGE_LOOP($,(#125));
#56=EDGE_LOOP($,(#126));
#57=EDGE_LOOP($,(#127));
#58=EDGE_LOOP($,(#128));
#59=EDGE_LOOP($,(#129));
#60=EDGE_LOOP($,(#130));
#61=EDGE_LOOP($,(#131));
#62=EDGE_LOOP($,(#132));
#63=EDGE_LOOP($,(#133));
#64=EDGE_LOOP($,(#134));
#65=EDGE_LOOP($,(#135));
#66=EDGE_LOOP($,(#136));
#67=EDGE_LOOP($,(#137));
#68=EDGE_LOOP($,(#138));
#69=EDGE_LOOP($,(#139));
#70=EDGE_LOOP($,(#140));
#71=EDGE_LOOP($,(#141));
#72=EDGE_LOOP($,(#142));
#73=EDGE_LOOP($,(#143));
#74=EDGE_LOOP($,(#144));
#75=EDGE_LOOP($,(#145));
#76=EDGE_LOOP($,(#146));
#77=EDGE_LOOP($,(#147));
#78=CIRCLE($,#173,4.188);
#79=CIRCLE($,#174,4.688);
#80=CIRCLE($,#176,8.);
#81=CIRCLE($,#178,4.188);
#82=CIRCLE($,#180,8.5);
#83=CIRCLE($,#182,8.5);
#84=CIRCLE($,#184,4.188);
#85=CIRCLE($,#185,4.688);
#86=CIRCLE($,#187,8.00000000000001);
#87=CIRCLE($,#189,4.188);
#88=CIRCLE($,#191,8.50000000000001);
#89=CIRCLE($,#193,8.5);
#90=CIRCLE($,#197,12.5);
#91=CIRCLE($,#199,12.5);
#92=VERTEX_POINT($,#263);
#93=VERTEX_POINT($,#265);
#94=VERTEX_POINT($,#268);
#95=VERTEX_POINT($,#271);
#96=VERTEX_POINT($,#274);
#97=VERTEX_POINT($,#277);
#98=VERTEX_POINT($,#280);
#99=VERTEX_POINT($,#282);
#100=VERTEX_POINT($,#285);
#101=VERTEX_POINT($,#288);
#102=VERTEX_POINT($,#291);
#103=VERTEX_POINT($,#294);
#104=VERTEX_POINT($,#299);
#105=VERTEX_POINT($,#302);
#106=EDGE_CURVE($,#92,#92,#78,.T.);
#107=EDGE_CURVE($,#93,#93,#79,.T.);
#108=EDGE_CURVE($,#94,#94,#80,.T.);
#109=EDGE_CURVE($,#95,#95,#81,.T.);
#110=EDGE_CURVE($,#96,#96,#82,.T.);
#111=EDGE_CURVE($,#97,#97,#83,.T.);
#112=EDGE_CURVE($,#98,#98,#84,.T.);
#113=EDGE_CURVE($,#99,#99,#85,.T.);
#114=EDGE_CURVE($,#100,#100,#86,.T.);
#115=EDGE_CURVE($,#101,#101,#87,.T.);
#116=EDGE_CURVE($,#102,#102,#88,.T.);
#117=EDGE_CURVE($,#103,#103,#89,.T.);
#118=EDGE_CURVE($,#104,#104,#90,.T.);
#119=EDGE_CURVE($,#105,#105,#91,.T.);
#120=ORIENTED_EDGE($,*,*,#106,.T.);
#121=ORIENTED_EDGE($,*,*,#107,.T.);
#122=ORIENTED_EDGE($,*,*,#108,.F.);
#123=ORIENTED_EDGE($,*,*,#107,.F.);
#124=ORIENTED_EDGE($,*,*,#109,.F.);
#125=ORIENTED_EDGE($,*,*,#106,.F.);
#126=ORIENTED_EDGE($,*,*,#108,.T.);
#127=ORIENTED_EDGE($,*,*,#110,.T.);
#128=ORIENTED_EDGE($,*,*,#111,.F.);
#129=ORIENTED_EDGE($,*,*,#110,.F.);
#130=ORIENTED_EDGE($,*,*,#112,.T.);
#131=ORIENTED_EDGE($,*,*,#113,.T.);
#132=ORIENTED_EDGE($,*,*,#114,.F.);
#133=ORIENTED_EDGE($,*,*,#113,.F.);
#134=ORIENTED_EDGE($,*,*,#115,.F.);
#135=ORIENTED_EDGE($,*,*,#112,.F.);
#136=ORIENTED_EDGE($,*,*,#116,.T.);
#137=ORIENTED_EDGE($,*,*,#114,.T.);
#138=ORIENTED_EDGE($,*,*,#117,.T.);
#139=ORIENTED_EDGE($,*,*,#116,.F.);
#140=ORIENTED_EDGE($,*,*,#115,.T.);
#141=ORIENTED_EDGE($,*,*,#109,.T.);
#142=ORIENTED_EDGE($,*,*,#118,.F.);
#143=ORIENTED_EDGE($,*,*,#111,.T.);
#144=ORIENTED_EDGE($,*,*,#119,.F.);
#145=ORIENTED_EDGE($,*,*,#118,.T.);
#146=ORIENTED_EDGE($,*,*,#119,.T.);
#147=ORIENTED_EDGE($,*,*,#117,.F.);
#148=CONICAL_SURFACE($,#172,4.438,45.);
#149=CONICAL_SURFACE($,#179,8.25,44.9999999999999);
#150=CONICAL_SURFACE($,#183,4.438,45.0000000000001);
#151=CONICAL_SURFACE($,#190,8.25000000000001,45.);
#152=CONICAL_SURFACE($,#194,3.7692,59.);
#153=CONICAL_SURFACE($,#195,3.7692,59.);
#154=ADVANCED_FACE($,(#35,#22),#148,.F.);
#155=ADVANCED_FACE($,(#36,#23),#18,.T.);
#156=ADVANCED_FACE($,(#37,#24),#13,.F.);
#157=ADVANCED_FACE($,(#38,#25),#149,.T.);
#158=ADVANCED_FACE($,(#39,#26),#14,.T.);
#159=ADVANCED_FACE($,(#40,#27),#150,.F.);
#160=ADVANCED_FACE($,(#41,#28),#19,.T.);
#161=ADVANCED_FACE($,(#42,#29),#15,.F.);
#162=ADVANCED_FACE($,(#43,#30),#151,.T.);
#163=ADVANCED_FACE($,(#44,#31),#16,.T.);
#164=ADVANCED_FACE($,(#45),#152,.F.);
#165=ADVANCED_FACE($,(#46),#153,.F.);
#166=ADVANCED_FACE($,(#47,#32),#20,.T.);
#167=ADVANCED_FACE($,(#48,#33),#17,.T.);
#168=ADVANCED_FACE($,(#49,#34),#21,.T.);
#169=CLOSED_SHELL($,(#154,#155,#156,#157,#158,#159,#160,#161,#162,#163,
#164,#165,#166,#167,#168));
#170=MANIFOLD_SOLID_BREP('T\X2\011B\X0\leso2',#169);
#171=AXIS2_PLACEMENT_3D('placement',#261,#201,#202);
#172=AXIS2_PLACEMENT_3D($,#262,#203,#204);
#173=AXIS2_PLACEMENT_3D($,#264,#205,#206);
#174=AXIS2_PLACEMENT_3D($,#266,#207,#208);
#175=AXIS2_PLACEMENT_3D($,#267,#209,#210);
#176=AXIS2_PLACEMENT_3D($,#269,#211,#212);
#177=AXIS2_PLACEMENT_3D($,#270,#213,#214);
#178=AXIS2_PLACEMENT_3D($,#272,#215,#216);
#179=AXIS2_PLACEMENT_3D($,#273,#217,#218);
#180=AXIS2_PLACEMENT_3D($,#275,#219,#220);
#181=AXIS2_PLACEMENT_3D($,#276,#221,#222);
#182=AXIS2_PLACEMENT_3D($,#278,#223,#224);
#183=AXIS2_PLACEMENT_3D($,#279,#225,#226);
#184=AXIS2_PLACEMENT_3D($,#281,#227,#228);
#185=AXIS2_PLACEMENT_3D($,#283,#229,#230);
#186=AXIS2_PLACEMENT_3D($,#284,#231,#232);
#187=AXIS2_PLACEMENT_3D($,#286,#233,#234);
#188=AXIS2_PLACEMENT_3D($,#287,#235,#236);
#189=AXIS2_PLACEMENT_3D($,#289,#237,#238);
#190=AXIS2_PLACEMENT_3D($,#290,#239,#240);
#191=AXIS2_PLACEMENT_3D($,#292,#241,#242);
#192=AXIS2_PLACEMENT_3D($,#293,#243,#244);
#193=AXIS2_PLACEMENT_3D($,#295,#245,#246);
#194=AXIS2_PLACEMENT_3D($,#296,#247,#248);
#195=AXIS2_PLACEMENT_3D($,#297,#249,#250);
#196=AXIS2_PLACEMENT_3D($,#298,#251,#252);
#197=AXIS2_PLACEMENT_3D($,#300,#253,#254);
#198=AXIS2_PLACEMENT_3D($,#301,#255,#256);
#199=AXIS2_PLACEMENT_3D($,#303,#257,#258);
#200=AXIS2_PLACEMENT_3D($,#304,#259,#260);
#201=DIRECTION('axis',(0.,0.,1.));
#202=DIRECTION('refdir',(1.,0.,0.));
#203=DIRECTION('center_axis',(1.,-2.22044604925031E-016,0.));
#204=DIRECTION('ref_axis',(-2.22044604925031E-016,-1.,0.));
#205=DIRECTION('center_axis',(-1.,2.22044604925031E-016,0.));
#206=DIRECTION('ref_axis',(-2.22044604925031E-016,-1.,0.));
#207=DIRECTION('center_axis',(1.,-2.22044604925031E-016,0.));
#208=DIRECTION('ref_axis',(-2.22044604925031E-016,-1.,0.));
#209=DIRECTION('center_axis',(1.,-2.22044604925031E-016,0.));
#210=DIRECTION('ref_axis',(0.,0.,-1.));
#211=DIRECTION('center_axis',(-1.,2.22044604925031E-016,0.));
#212=DIRECTION('ref_axis',(2.22044604925031E-016,1.,0.));
#213=DIRECTION('center_axis',(1.,-2.22044604925031E-016,0.));
#214=DIRECTION('ref_axis',(-2.22044604925031E-016,-1.,-3.74902688319908E-016));
#215=DIRECTION('center_axis',(1.,-2.22044604925031E-016,0.));
#216=DIRECTION('ref_axis',(2.22044604925031E-016,1.,0.));
#217=DIRECTION('center_axis',(-1.,2.22044604925031E-016,0.));
#218=DIRECTION('ref_axis',(2.22044604925031E-016,1.,0.));
#219=DIRECTION('center_axis',(1.,-2.22044604925031E-016,0.));
#220=DIRECTION('ref_axis',(2.22044604925031E-016,1.,0.));
#221=DIRECTION('center_axis',(-1.,2.22044604925031E-016,0.));
#222=DIRECTION('ref_axis',(-2.22044604925031E-016,-1.,0.));
#223=DIRECTION('center_axis',(-1.,2.22044604925031E-016,0.));
#224=DIRECTION('ref_axis',(-2.22044604925031E-016,-1.,0.));
#225=DIRECTION('center_axis',(-1.,2.22044604925031E-016,0.));
#226=DIRECTION('ref_axis',(2.22044604925031E-016,1.,0.));
#227=DIRECTION('center_axis',(1.,-2.22044604925031E-016,0.));
#228=DIRECTION('ref_axis',(2.22044604925031E-016,1.,0.));
#229=DIRECTION('center_axis',(-1.,2.22044604925031E-016,0.));
#230=DIRECTION('ref_axis',(2.22044604925031E-016,1.,0.));
#231=DIRECTION('center_axis',(-1.,2.22044604925031E-016,0.));
#232=DIRECTION('ref_axis',(0.,0.,1.));
#233=DIRECTION('center_axis',(1.,-2.22044604925031E-016,0.));
#234=DIRECTION('ref_axis',(2.22044604925031E-016,1.,0.));
#235=DIRECTION('center_axis',(-1.,2.22044604925031E-016,0.));
#236=DIRECTION('ref_axis',(2.22044604925031E-016,1.,-3.74902688319908E-016));
#237=DIRECTION('center_axis',(-1.,2.22044604925031E-016,0.));
#238=DIRECTION('ref_axis',(-2.22044604925031E-016,-1.,0.));
#239=DIRECTION('center_axis',(1.,-2.22044604925031E-016,0.));
#240=DIRECTION('ref_axis',(2.22044604925031E-016,1.,0.));
#241=DIRECTION('center_axis',(-1.,2.22044604925031E-016,0.));
#242=DIRECTION('ref_axis',(2.22044604925031E-016,1.,0.));
#243=DIRECTION('center_axis',(-1.,2.22044604925031E-016,0.));
#244=DIRECTION('ref_axis',(-2.22044604925031E-016,-1.,0.));
#245=DIRECTION('center_axis',(-1.,2.22044604925031E-016,0.));
#246=DIRECTION('ref_axis',(-2.22044604925031E-016,-1.,0.));
#247=DIRECTION('center_axis',(-1.,3.67972871891134E-016,1.05165031052775E-016));
#248=DIRECTION('ref_axis',(2.38353601727507E-016,0.813826036051075,-0.581108581114919));
#249=DIRECTION('center_axis',(1.,-2.22044604925031E-016,0.));
#250=DIRECTION('ref_axis',(-1.80705680652665E-016,-0.813826036051075,-0.581108581114919));
#251=DIRECTION('center_axis',(1.,-2.22044604925031E-016,0.));
#252=DIRECTION('ref_axis',(0.,0.,-1.));
#253=DIRECTION('center_axis',(-1.,2.22044604925031E-016,0.));
#254=DIRECTION('ref_axis',(-2.22044604925031E-016,-1.,0.));
#255=DIRECTION('center_axis',(-1.,2.22044604925031E-016,0.));
#256=DIRECTION('ref_axis',(-2.22044604925031E-016,-1.,0.));
#257=DIRECTION('center_axis',(-1.,2.22044604925031E-016,0.));
#258=DIRECTION('ref_axis',(-2.22044604925031E-016,-1.,0.));
#259=DIRECTION('center_axis',(-1.,2.22044604925031E-016,0.));
#260=DIRECTION('ref_axis',(0.,0.,1.));
#261=CARTESIAN_POINT('',(0.,0.,0.));
#262=CARTESIAN_POINT('Origin',(19.55,-4.34097202628436E-015,0.));
#263=CARTESIAN_POINT('',(19.3,4.188,-5.128651E-016));
#264=CARTESIAN_POINT('Origin',(19.3,-4.28546087505311E-015,0.));
#265=CARTESIAN_POINT('',(19.8,4.688,5.740955E-016));
#266=CARTESIAN_POINT('Origin',(19.8,-4.39648317751562E-015,0.));
#267=CARTESIAN_POINT('Origin',(19.8,-4.25000000000001,0.));
#268=CARTESIAN_POINT('',(19.8,-8.00000000000001,9.796851E-016));
#269=CARTESIAN_POINT('Origin',(19.8,-4.39648317751562E-015,0.));
#270=CARTESIAN_POINT('Origin',(7.55,-1.12132525487141E-015,1.05721035868377E-015));
#271=CARTESIAN_POINT('',(-4.2,4.188,0.));
#272=CARTESIAN_POINT('Origin',(-4.2,9.32587340685132E-016,0.));
#273=CARTESIAN_POINT('Origin',(19.55,-4.34097202628436E-015,0.));
#274=CARTESIAN_POINT('',(19.3,-8.50000000000001,-1.040915E-015));
#275=CARTESIAN_POINT('Origin',(19.3,-4.2854608750531E-015,0.));
#276=CARTESIAN_POINT('Origin',(9.9,-2.19824158875781E-015,0.));
#277=CARTESIAN_POINT('',(3.33066858137234E-016,-8.5,0.));
#278=CARTESIAN_POINT('Origin',(6.661338E-015,-1.4791141644821E-030,0.));
#279=CARTESIAN_POINT('Origin',(-43.55,9.67004254448511E-015,0.));
#280=CARTESIAN_POINT('',(-43.3,-4.18799999999999,-5.128651E-016));
#281=CARTESIAN_POINT('Origin',(-43.3,9.61453139325386E-015,0.));
#282=CARTESIAN_POINT('',(-43.8,-4.68799999999999,5.740955E-016));
#283=CARTESIAN_POINT('Origin',(-43.8,9.72555369571637E-015,0.));
#284=CARTESIAN_POINT('Origin',(-43.8,-4.24999999999999,0.));
#285=CARTESIAN_POINT('',(-43.8,-8.,-9.796851E-016));
#286=CARTESIAN_POINT('Origin',(-43.8,9.72555369571637E-015,0.));
#287=CARTESIAN_POINT('Origin',(-32.55,6.67244037799719E-015,1.05721035868377E-015));
#288=CARTESIAN_POINT('',(-21.8,-4.188,0.));
#289=CARTESIAN_POINT('Origin',(-21.8,4.84057238736568E-015,0.));
#290=CARTESIAN_POINT('Origin',(-43.55,9.67004254448511E-015,0.));
#291=CARTESIAN_POINT('',(-43.3,-8.49999999999999,1.040915E-015));
#292=CARTESIAN_POINT('Origin',(-43.3,9.61453139325386E-015,0.));
#293=CARTESIAN_POINT('Origin',(-25.9,5.75095526755831E-015,0.));
#294=CARTESIAN_POINT('',(-8.,-8.5,0.));
#295=CARTESIAN_POINT('Origin',(-8.,1.77635683940025E-015,0.));
#296=CARTESIAN_POINT('Origin',(-21.5483595727513,3.67447396348891E-015,
1.11022302462516E-015));
#297=CARTESIAN_POINT('Origin',(-4.45164042724874,9.88462739936745E-016,
-2.77555756156289E-016));
#298=CARTESIAN_POINT('Origin',(-1.1102235171283E-016,-10.5,0.));
#299=CARTESIAN_POINT('',(1.66533443843711E-015,-12.5,0.));
#300=CARTESIAN_POINT('Origin',(6.661338E-015,-1.4791141644821E-030,0.));
#301=CARTESIAN_POINT('Origin',(-4.,8.88178419700125E-016,0.));
#302=CARTESIAN_POINT('',(-8.,-12.5,0.));
#303=CARTESIAN_POINT('Origin',(-8.,1.77635683940025E-015,0.));
#304=CARTESIAN_POINT('Origin',(-8.,-10.5,0.));
#305=UNCERTAINTY_MEASURE_WITH_UNIT(LENGTH_MEASURE(0.01),#307,
'DISTANCE_ACCURACY_VALUE',
'Maximum model space distance between geometric entities at asserted c
onnectivities');
#306=(
GEOMETRIC_REPRESENTATION_CONTEXT(3)
GLOBAL_UNCERTAINTY_ASSIGNED_CONTEXT((#305))
GLOBAL_UNIT_ASSIGNED_CONTEXT((#307,#310,#308))
REPRESENTATION_CONTEXT('','3D')
);
#307=(
LENGTH_UNIT()
NAMED_UNIT(*)
SI_UNIT(.MILLI.,.METRE.)
);
#308=(
NAMED_UNIT(*)
SI_UNIT($,.STERADIAN.)
SOLID_ANGLE_UNIT()
);
#309=DIMENSIONAL_EXPONENTS(0.,0.,0.,0.,0.,0.,0.);
#310=(
CONVERSION_BASED_UNIT('degree',#312)
NAMED_UNIT(#309)
PLANE_ANGLE_UNIT()
);
#311=(
NAMED_UNIT(*)
PLANE_ANGLE_UNIT()
SI_UNIT($,.RADIAN.)
);
#312=PLANE_ANGLE_MEASURE_WITH_UNIT(PLANE_ANGLE_MEASURE(0.01745329252),#311);
#313=SHAPE_DEFINITION_REPRESENTATION(#314,#315);
#314=PRODUCT_DEFINITION_SHAPE('',$,#317);
#315=SHAPE_REPRESENTATION('',(#171),#306);
#316=PRODUCT_DEFINITION_CONTEXT('3D Mechanical Parts',#320,'design');
#317=PRODUCT_DEFINITION('820301','820301',#318,#316);
#318=PRODUCT_DEFINITION_FORMATION('',$,#322);
#319=APPLICATION_PROTOCOL_DEFINITION('international standard',
'automotive_design',2009,#320);
#320=APPLICATION_CONTEXT(
'Core Data for Automotive Mechanical Design Process');
#321=PRODUCT_CONTEXT('3D Mechanical Parts',#320,'mechanical');
#322=PRODUCT('820301','820301',$,(#321));
#323=PRESENTATION_STYLE_ASSIGNMENT((#325));
#324=PRESENTATION_STYLE_ASSIGNMENT((#326));
#325=SURFACE_STYLE_USAGE(.BOTH.,#327);
#326=SURFACE_STYLE_USAGE(.BOTH.,#328);
#327=SURFACE_SIDE_STYLE($,(#329));
#328=SURFACE_SIDE_STYLE($,(#330));
#329=SURFACE_STYLE_FILL_AREA(#331);
#330=SURFACE_STYLE_FILL_AREA(#332);
#331=FILL_AREA_STYLE($,(#333));
#332=FILL_AREA_STYLE($,(#334));
#333=FILL_AREA_STYLE_COLOUR($,#335);
#334=FILL_AREA_STYLE_COLOUR($,#336);
#335=COLOUR_RGB('',0.749019607843137,0.749019607843137,0.749019607843137);
#336=COLOUR_RGB('',0.847058823529412,0.83921568627451,0.83921568627451);
ENDSEC;
END-ISO-10303-21;
