ISO-10303-21;
HEADER;
/* Generated by software containing ST-Developer
 * from STEP Tools, Inc. (www.steptools.com) 
 */

FILE_DESCRIPTION(
/* description */ (''),
/* implementation_level */ '2;1');

FILE_NAME(
/* name */ 'C:\\STEP\\802004.stp',
/* time_stamp */ '2014-03-15T11:04:16+01:00',
/* author */ ('jank'),
/* organization */ ('Alutec K&K'),
/* preprocessor_version */ 'ST-DEVELOPER v15.2',
/* originating_system */ 'Autodesk Inventor 2014',
/* authorisation */ '');

FILE_SCHEMA (('AUTOMOTIVE_DESIGN { 1 0 10303 214 3 1 1 }'));
ENDSEC;

DATA;
#10=SHAPE_REPRESENTATION_RELATIONSHIP('SRR','None',#383,#11);
#11=ADVANCED_BREP_SHAPE_REPRESENTATION($,(#225),#374);
#12=STYLED_ITEM($,(#392),#225);
#13=LINE($,#338,#31);
#14=LINE($,#340,#32);
#15=LINE($,#342,#33);
#16=LINE($,#343,#34);
#17=LINE($,#346,#35);
#18=LINE($,#348,#36);
#19=LINE($,#349,#37);
#20=LINE($,#352,#38);
#21=LINE($,#354,#39);
#22=LINE($,#355,#40);
#23=LINE($,#358,#41);
#24=LINE($,#360,#42);
#25=LINE($,#361,#43);
#26=LINE($,#364,#44);
#27=LINE($,#366,#45);
#28=LINE($,#367,#46);
#29=LINE($,#369,#47);
#30=LINE($,#370,#48);
#31=VECTOR($,#281,20.7846096908265);
#32=VECTOR($,#282,10.);
#33=VECTOR($,#283,20.7846096908265);
#34=VECTOR($,#284,10.);
#35=VECTOR($,#287,20.7846096908265);
#36=VECTOR($,#288,10.);
#37=VECTOR($,#289,20.7846096908265);
#38=VECTOR($,#292,20.7846096908265);
#39=VECTOR($,#293,10.);
#40=VECTOR($,#294,20.7846096908265);
#41=VECTOR($,#297,20.7846096908265);
#42=VECTOR($,#298,10.);
#43=VECTOR($,#299,20.7846096908265);
#44=VECTOR($,#302,20.7846096908265);
#45=VECTOR($,#303,10.);
#46=VECTOR($,#304,20.7846096908265);
#47=VECTOR($,#307,20.7846096908265);
#48=VECTOR($,#308,20.7846096908265);
#49=CONICAL_SURFACE($,#232,8.5,45.0000000000001);
#50=PLANE($,#230);
#51=PLANE($,#236);
#52=PLANE($,#240);
#53=PLANE($,#241);
#54=PLANE($,#242);
#55=PLANE($,#243);
#56=PLANE($,#244);
#57=PLANE($,#245);
#58=PLANE($,#246);
#59=PLANE($,#247);
#60=PLANE($,#248);
#61=FACE_BOUND($,#84,.T.);
#62=FACE_BOUND($,#86,.T.);
#63=FACE_BOUND($,#88,.T.);
#64=FACE_BOUND($,#90,.T.);
#65=FACE_BOUND($,#93,.T.);
#66=FACE_BOUND($,#95,.T.);
#67=FACE_BOUND($,#103,.T.);
#68=FACE_OUTER_BOUND($,#83,.T.);
#69=FACE_OUTER_BOUND($,#85,.T.);
#70=FACE_OUTER_BOUND($,#87,.T.);
#71=FACE_OUTER_BOUND($,#89,.T.);
#72=FACE_OUTER_BOUND($,#91,.T.);
#73=FACE_OUTER_BOUND($,#92,.T.);
#74=FACE_OUTER_BOUND($,#94,.T.);
#75=FACE_OUTER_BOUND($,#96,.T.);
#76=FACE_OUTER_BOUND($,#97,.T.);
#77=FACE_OUTER_BOUND($,#98,.T.);
#78=FACE_OUTER_BOUND($,#99,.T.);
#79=FACE_OUTER_BOUND($,#100,.T.);
#80=FACE_OUTER_BOUND($,#101,.T.);
#81=FACE_OUTER_BOUND($,#102,.T.);
#82=FACE_OUTER_BOUND($,#104,.T.);
#83=EDGE_LOOP($,(#156));
#84=EDGE_LOOP($,(#157));
#85=EDGE_LOOP($,(#158));
#86=EDGE_LOOP($,(#159));
#87=EDGE_LOOP($,(#160));
#88=EDGE_LOOP($,(#161));
#89=EDGE_LOOP($,(#162));
#90=EDGE_LOOP($,(#163));
#91=EDGE_LOOP($,(#164));
#92=EDGE_LOOP($,(#165));
#93=EDGE_LOOP($,(#166));
#94=EDGE_LOOP($,(#167));
#95=EDGE_LOOP($,(#168));
#96=EDGE_LOOP($,(#169,#170,#171,#172));
#97=EDGE_LOOP($,(#173,#174,#175,#176));
#98=EDGE_LOOP($,(#177,#178,#179,#180));
#99=EDGE_LOOP($,(#181,#182,#183,#184));
#100=EDGE_LOOP($,(#185,#186,#187,#188));
#101=EDGE_LOOP($,(#189,#190,#191,#192));
#102=EDGE_LOOP($,(#193,#194,#195,#196,#197,#198));
#103=EDGE_LOOP($,(#199));
#104=EDGE_LOOP($,(#200,#201,#202,#203,#204,#205));
#105=CIRCLE($,#228,7.30000000000001);
#106=CIRCLE($,#229,7.30000000000001);
#107=CIRCLE($,#231,9.);
#108=CIRCLE($,#233,8.);
#109=CIRCLE($,#234,9.);
#110=CIRCLE($,#238,12.5);
#111=CIRCLE($,#239,12.5);
#112=VERTEX_POINT($,#315);
#113=VERTEX_POINT($,#317);
#114=VERTEX_POINT($,#320);
#115=VERTEX_POINT($,#323);
#116=VERTEX_POINT($,#325);
#117=VERTEX_POINT($,#330);
#118=VERTEX_POINT($,#332);
#119=VERTEX_POINT($,#336);
#120=VERTEX_POINT($,#337);
#121=VERTEX_POINT($,#339);
#122=VERTEX_POINT($,#341);
#123=VERTEX_POINT($,#345);
#124=VERTEX_POINT($,#347);
#125=VERTEX_POINT($,#351);
#126=VERTEX_POINT($,#353);
#127=VERTEX_POINT($,#357);
#128=VERTEX_POINT($,#359);
#129=VERTEX_POINT($,#363);
#130=VERTEX_POINT($,#365);
#131=EDGE_CURVE($,#112,#112,#105,.T.);
#132=EDGE_CURVE($,#113,#113,#106,.T.);
#133=EDGE_CURVE($,#114,#114,#107,.T.);
#134=EDGE_CURVE($,#115,#115,#108,.T.);
#135=EDGE_CURVE($,#116,#116,#109,.T.);
#136=EDGE_CURVE($,#117,#117,#110,.T.);
#137=EDGE_CURVE($,#118,#118,#111,.T.);
#138=EDGE_CURVE($,#119,#120,#13,.T.);
#139=EDGE_CURVE($,#121,#120,#14,.T.);
#140=EDGE_CURVE($,#122,#121,#15,.T.);
#141=EDGE_CURVE($,#122,#119,#16,.T.);
#142=EDGE_CURVE($,#120,#123,#17,.T.);
#143=EDGE_CURVE($,#124,#123,#18,.T.);
#144=EDGE_CURVE($,#121,#124,#19,.T.);
#145=EDGE_CURVE($,#123,#125,#20,.T.);
#146=EDGE_CURVE($,#126,#125,#21,.T.);
#147=EDGE_CURVE($,#124,#126,#22,.T.);
#148=EDGE_CURVE($,#125,#127,#23,.T.);
#149=EDGE_CURVE($,#128,#127,#24,.T.);
#150=EDGE_CURVE($,#126,#128,#25,.T.);
#151=EDGE_CURVE($,#127,#129,#26,.T.);
#152=EDGE_CURVE($,#130,#129,#27,.T.);
#153=EDGE_CURVE($,#128,#130,#28,.T.);
#154=EDGE_CURVE($,#129,#119,#29,.T.);
#155=EDGE_CURVE($,#130,#122,#30,.T.);
#156=ORIENTED_EDGE($,*,*,#131,.T.);
#157=ORIENTED_EDGE($,*,*,#132,.F.);
#158=ORIENTED_EDGE($,*,*,#133,.F.);
#159=ORIENTED_EDGE($,*,*,#131,.F.);
#160=ORIENTED_EDGE($,*,*,#134,.T.);
#161=ORIENTED_EDGE($,*,*,#135,.T.);
#162=ORIENTED_EDGE($,*,*,#133,.T.);
#163=ORIENTED_EDGE($,*,*,#135,.F.);
#164=ORIENTED_EDGE($,*,*,#134,.F.);
#165=ORIENTED_EDGE($,*,*,#136,.T.);
#166=ORIENTED_EDGE($,*,*,#137,.F.);
#167=ORIENTED_EDGE($,*,*,#136,.F.);
#168=ORIENTED_EDGE($,*,*,#132,.T.);
#169=ORIENTED_EDGE($,*,*,#138,.T.);
#170=ORIENTED_EDGE($,*,*,#139,.F.);
#171=ORIENTED_EDGE($,*,*,#140,.F.);
#172=ORIENTED_EDGE($,*,*,#141,.T.);
#173=ORIENTED_EDGE($,*,*,#142,.T.);
#174=ORIENTED_EDGE($,*,*,#143,.F.);
#175=ORIENTED_EDGE($,*,*,#144,.F.);
#176=ORIENTED_EDGE($,*,*,#139,.T.);
#177=ORIENTED_EDGE($,*,*,#145,.T.);
#178=ORIENTED_EDGE($,*,*,#146,.F.);
#179=ORIENTED_EDGE($,*,*,#147,.F.);
#180=ORIENTED_EDGE($,*,*,#143,.T.);
#181=ORIENTED_EDGE($,*,*,#148,.T.);
#182=ORIENTED_EDGE($,*,*,#149,.F.);
#183=ORIENTED_EDGE($,*,*,#150,.F.);
#184=ORIENTED_EDGE($,*,*,#146,.T.);
#185=ORIENTED_EDGE($,*,*,#151,.T.);
#186=ORIENTED_EDGE($,*,*,#152,.F.);
#187=ORIENTED_EDGE($,*,*,#153,.F.);
#188=ORIENTED_EDGE($,*,*,#149,.T.);
#189=ORIENTED_EDGE($,*,*,#154,.T.);
#190=ORIENTED_EDGE($,*,*,#141,.F.);
#191=ORIENTED_EDGE($,*,*,#155,.F.);
#192=ORIENTED_EDGE($,*,*,#152,.T.);
#193=ORIENTED_EDGE($,*,*,#138,.F.);
#194=ORIENTED_EDGE($,*,*,#154,.F.);
#195=ORIENTED_EDGE($,*,*,#151,.F.);
#196=ORIENTED_EDGE($,*,*,#148,.F.);
#197=ORIENTED_EDGE($,*,*,#145,.F.);
#198=ORIENTED_EDGE($,*,*,#142,.F.);
#199=ORIENTED_EDGE($,*,*,#137,.T.);
#200=ORIENTED_EDGE($,*,*,#155,.T.);
#201=ORIENTED_EDGE($,*,*,#140,.T.);
#202=ORIENTED_EDGE($,*,*,#144,.T.);
#203=ORIENTED_EDGE($,*,*,#147,.T.);
#204=ORIENTED_EDGE($,*,*,#150,.T.);
#205=ORIENTED_EDGE($,*,*,#153,.T.);
#206=CYLINDRICAL_SURFACE($,#227,7.30000000000001);
#207=CYLINDRICAL_SURFACE($,#235,9.);
#208=CYLINDRICAL_SURFACE($,#237,12.5);
#209=ADVANCED_FACE($,(#68,#61),#206,.T.);
#210=ADVANCED_FACE($,(#69,#62),#50,.F.);
#211=ADVANCED_FACE($,(#70,#63),#49,.T.);
#212=ADVANCED_FACE($,(#71,#64),#207,.T.);
#213=ADVANCED_FACE($,(#72),#51,.F.);
#214=ADVANCED_FACE($,(#73,#65),#208,.T.);
#215=ADVANCED_FACE($,(#74,#66),#52,.F.);
#216=ADVANCED_FACE($,(#75),#53,.T.);
#217=ADVANCED_FACE($,(#76),#54,.T.);
#218=ADVANCED_FACE($,(#77),#55,.T.);
#219=ADVANCED_FACE($,(#78),#56,.T.);
#220=ADVANCED_FACE($,(#79),#57,.T.);
#221=ADVANCED_FACE($,(#80),#58,.T.);
#222=ADVANCED_FACE($,(#81,#67),#59,.T.);
#223=ADVANCED_FACE($,(#82),#60,.F.);
#224=CLOSED_SHELL($,(#209,#210,#211,#212,#213,#214,#215,#216,#217,#218,
#219,#220,#221,#222,#223));
#225=MANIFOLD_SOLID_BREP('T\X2\011B\X0\leso1',#224);
#226=AXIS2_PLACEMENT_3D('placement',#313,#249,#250);
#227=AXIS2_PLACEMENT_3D($,#314,#251,#252);
#228=AXIS2_PLACEMENT_3D($,#316,#253,#254);
#229=AXIS2_PLACEMENT_3D($,#318,#255,#256);
#230=AXIS2_PLACEMENT_3D($,#319,#257,#258);
#231=AXIS2_PLACEMENT_3D($,#321,#259,#260);
#232=AXIS2_PLACEMENT_3D($,#322,#261,#262);
#233=AXIS2_PLACEMENT_3D($,#324,#263,#264);
#234=AXIS2_PLACEMENT_3D($,#326,#265,#266);
#235=AXIS2_PLACEMENT_3D($,#327,#267,#268);
#236=AXIS2_PLACEMENT_3D($,#328,#269,#270);
#237=AXIS2_PLACEMENT_3D($,#329,#271,#272);
#238=AXIS2_PLACEMENT_3D($,#331,#273,#274);
#239=AXIS2_PLACEMENT_3D($,#333,#275,#276);
#240=AXIS2_PLACEMENT_3D($,#334,#277,#278);
#241=AXIS2_PLACEMENT_3D($,#335,#279,#280);
#242=AXIS2_PLACEMENT_3D($,#344,#285,#286);
#243=AXIS2_PLACEMENT_3D($,#350,#290,#291);
#244=AXIS2_PLACEMENT_3D($,#356,#295,#296);
#245=AXIS2_PLACEMENT_3D($,#362,#300,#301);
#246=AXIS2_PLACEMENT_3D($,#368,#305,#306);
#247=AXIS2_PLACEMENT_3D($,#371,#309,#310);
#248=AXIS2_PLACEMENT_3D($,#372,#311,#312);
#249=DIRECTION('axis',(0.,0.,1.));
#250=DIRECTION('refdir',(1.,0.,0.));
#251=DIRECTION('center_axis',(-1.,0.,-2.22044604925031E-016));
#252=DIRECTION('ref_axis',(0.,-1.,0.));
#253=DIRECTION('center_axis',(-1.,0.,-2.22044604925031E-016));
#254=DIRECTION('ref_axis',(0.,-1.,0.));
#255=DIRECTION('center_axis',(-1.,0.,-2.22044604925031E-016));
#256=DIRECTION('ref_axis',(0.,-1.,0.));
#257=DIRECTION('center_axis',(1.,0.,2.22044604925031E-016));
#258=DIRECTION('ref_axis',(4.44089209850063E-016,0.,-1.));
#259=DIRECTION('center_axis',(1.,0.,2.22044604925031E-016));
#260=DIRECTION('ref_axis',(-2.22044604925031E-016,0.,1.));
#261=DIRECTION('center_axis',(-1.,0.,-2.22044604925031E-016));
#262=DIRECTION('ref_axis',(-2.22044604925031E-016,0.,1.));
#263=DIRECTION('center_axis',(-1.,0.,-2.22044604925031E-016));
#264=DIRECTION('ref_axis',(-2.22044604925031E-016,0.,1.));
#265=DIRECTION('center_axis',(1.,0.,2.22044604925031E-016));
#266=DIRECTION('ref_axis',(-2.22044604925031E-016,0.,1.));
#267=DIRECTION('center_axis',(1.,0.,2.22044604925031E-016));
#268=DIRECTION('ref_axis',(-2.22044604925031E-016,0.,1.));
#269=DIRECTION('center_axis',(-1.,0.,-2.22044604925031E-016));
#270=DIRECTION('ref_axis',(0.,0.,1.));
#271=DIRECTION('center_axis',(1.,0.,2.22044604925031E-016));
#272=DIRECTION('ref_axis',(-2.22044604925031E-016,0.,1.));
#273=DIRECTION('center_axis',(-1.,0.,-2.22044604925031E-016));
#274=DIRECTION('ref_axis',(-2.22044604925031E-016,0.,1.));
#275=DIRECTION('center_axis',(-1.,0.,-2.22044604925031E-016));
#276=DIRECTION('ref_axis',(-2.22044604925031E-016,0.,1.));
#277=DIRECTION('center_axis',(-1.,0.,-2.22044604925031E-016));
#278=DIRECTION('ref_axis',(-2.22044604925031E-016,0.,1.));
#279=DIRECTION('center_axis',(2.22044604925031E-016,0.,-1.));
#280=DIRECTION('ref_axis',(-1.,0.,0.));
#281=DIRECTION($,(0.,-1.,0.));
#282=DIRECTION($,(1.,0.,2.22044604925031E-016));
#283=DIRECTION($,(0.,-1.,0.));
#284=DIRECTION($,(1.,0.,2.22044604925031E-016));
#285=DIRECTION('center_axis',(1.11022302462516E-016,-0.866025403784439,
-0.5));
#286=DIRECTION('ref_axis',(-1.,0.,0.));
#287=DIRECTION($,(-1.92296268638356E-016,-0.5,0.866025403784438));
#288=DIRECTION($,(1.,0.,2.22044604925031E-016));
#289=DIRECTION($,(-1.92296268638356E-016,-0.5,0.866025403784438));
#290=DIRECTION('center_axis',(-1.11022302462516E-016,-0.866025403784439,
0.5));
#291=DIRECTION('ref_axis',(-1.,0.,-2.22044604925031E-016));
#292=DIRECTION($,(-1.92296268638356E-016,0.5,0.866025403784439));
#293=DIRECTION($,(1.,0.,2.22044604925031E-016));
#294=DIRECTION($,(-1.92296268638356E-016,0.5,0.866025403784439));
#295=DIRECTION('center_axis',(-2.22044604925031E-016,0.,1.));
#296=DIRECTION('ref_axis',(1.,0.,0.));
#297=DIRECTION($,(0.,1.,0.));
#298=DIRECTION($,(1.,0.,2.22044604925031E-016));
#299=DIRECTION($,(0.,1.,0.));
#300=DIRECTION('center_axis',(-1.11022302462516E-016,0.866025403784438,
0.5));
#301=DIRECTION('ref_axis',(1.,0.,0.));
#302=DIRECTION($,(1.92296268638356E-016,0.5,-0.866025403784438));
#303=DIRECTION($,(1.,0.,2.22044604925031E-016));
#304=DIRECTION($,(1.92296268638356E-016,0.5,-0.866025403784438));
#305=DIRECTION('center_axis',(1.11022302462516E-016,0.866025403784439,-0.5));
#306=DIRECTION('ref_axis',(1.,0.,2.22044604925031E-016));
#307=DIRECTION($,(1.92296268638356E-016,-0.5,-0.866025403784439));
#308=DIRECTION($,(1.92296268638356E-016,-0.5,-0.866025403784439));
#309=DIRECTION('center_axis',(1.,0.,2.22044604925031E-016));
#310=DIRECTION('ref_axis',(0.,0.,-1.));
#311=DIRECTION('center_axis',(1.,0.,2.22044604925031E-016));
#312=DIRECTION('ref_axis',(0.,0.,-1.));
#313=CARTESIAN_POINT('',(0.,0.,0.));
#314=CARTESIAN_POINT('Origin',(1.5,0.,3.33066907387547E-016));
#315=CARTESIAN_POINT('',(3.,-7.30000000000001,6.66133814775093E-016));
#316=CARTESIAN_POINT('Origin',(3.,0.,6.66133814775093E-016));
#317=CARTESIAN_POINT('',(0.,-7.30000000000001,0.));
#318=CARTESIAN_POINT('Origin',(0.,0.,0.));
#319=CARTESIAN_POINT('Origin',(3.,-8.15,6.66133814775093E-016));
#320=CARTESIAN_POINT('',(3.,-9.,6.66133814775095E-016));
#321=CARTESIAN_POINT('Origin',(3.,0.,6.66133814775093E-016));
#322=CARTESIAN_POINT('Origin',(30.5,0.,6.77236045021346E-015));
#323=CARTESIAN_POINT('',(31.,-9.796851E-016,-7.99999999999999));
#324=CARTESIAN_POINT('Origin',(31.,0.,6.88338275267597E-015));
#325=CARTESIAN_POINT('',(30.,1.102146E-015,-8.99999999999999));
#326=CARTESIAN_POINT('Origin',(30.,0.,6.66133814775094E-015));
#327=CARTESIAN_POINT('Origin',(0.,0.,0.));
#328=CARTESIAN_POINT('Origin',(31.,0.,6.88338275267597E-015));
#329=CARTESIAN_POINT('Origin',(-25.,0.,-5.55111512312578E-015));
#330=CARTESIAN_POINT('',(2.77555756156289E-015,1.530808E-015,-12.5));
#331=CARTESIAN_POINT('Origin',(0.,0.,0.));
#332=CARTESIAN_POINT('',(-25.,1.530808E-015,-12.5));
#333=CARTESIAN_POINT('Origin',(-25.,0.,-5.55111512312578E-015));
#334=CARTESIAN_POINT('Origin',(0.,0.,0.));
#335=CARTESIAN_POINT('Origin',(-35.,10.3923048454133,-18.));
#336=CARTESIAN_POINT('',(-25.,10.3923048454133,-18.));
#337=CARTESIAN_POINT('',(-25.,-10.3923048454133,-18.));
#338=CARTESIAN_POINT($,(-25.,10.3923048454133,-18.));
#339=CARTESIAN_POINT('',(-35.,-10.3923048454133,-18.));
#340=CARTESIAN_POINT($,(-35.,-10.3923048454133,-18.));
#341=CARTESIAN_POINT('',(-35.,10.3923048454133,-18.));
#342=CARTESIAN_POINT($,(-35.,10.3923048454133,-18.));
#343=CARTESIAN_POINT($,(-35.,10.3923048454133,-18.));
#344=CARTESIAN_POINT('Origin',(-35.,-10.3923048454133,-18.));
#345=CARTESIAN_POINT('',(-25.,-20.7846096908265,-1.68461651231258E-014));
#346=CARTESIAN_POINT($,(-25.,-10.3923048454133,-18.));
#347=CARTESIAN_POINT('',(-35.,-20.7846096908265,-1.90666111723761E-014));
#348=CARTESIAN_POINT($,(-35.,-20.7846096908265,-1.90666111723761E-014));
#349=CARTESIAN_POINT($,(-35.,-10.3923048454133,-18.));
#350=CARTESIAN_POINT('Origin',(-35.,-20.7846096908265,-1.90666111723761E-014));
#351=CARTESIAN_POINT('',(-25.,-10.3923048454133,18.));
#352=CARTESIAN_POINT($,(-25.,-20.7846096908265,-1.68461651231258E-014));
#353=CARTESIAN_POINT('',(-35.,-10.3923048454133,18.));
#354=CARTESIAN_POINT($,(-35.,-10.3923048454133,18.));
#355=CARTESIAN_POINT($,(-35.,-20.7846096908265,-1.90666111723761E-014));
#356=CARTESIAN_POINT('Origin',(-35.,-10.3923048454133,18.));
#357=CARTESIAN_POINT('',(-25.,10.3923048454133,18.));
#358=CARTESIAN_POINT($,(-25.,-10.3923048454133,18.));
#359=CARTESIAN_POINT('',(-35.,10.3923048454133,18.));
#360=CARTESIAN_POINT($,(-35.,10.3923048454133,18.));
#361=CARTESIAN_POINT($,(-35.,-10.3923048454133,18.));
#362=CARTESIAN_POINT('Origin',(-35.,10.3923048454133,18.));
#363=CARTESIAN_POINT('',(-25.,20.7846096908265,-3.97146712312578E-015));
#364=CARTESIAN_POINT($,(-25.,10.3923048454133,18.));
#365=CARTESIAN_POINT('',(-35.,20.7846096908265,-6.1919131723761E-015));
#366=CARTESIAN_POINT($,(-35.,20.7846096908265,-6.1919131723761E-015));
#367=CARTESIAN_POINT($,(-35.,10.3923048454133,18.));
#368=CARTESIAN_POINT('Origin',(-35.,20.7846096908265,-6.1919131723761E-015));
#369=CARTESIAN_POINT($,(-25.,20.7846096908265,-3.97146712312578E-015));
#370=CARTESIAN_POINT($,(-35.,20.7846096908265,-6.1919131723761E-015));
#371=CARTESIAN_POINT('Origin',(-25.,-1.258253E-014,-1.16573421231258E-014));
#372=CARTESIAN_POINT('Origin',(-35.,-1.276756E-014,-1.38777881723761E-014));
#373=UNCERTAINTY_MEASURE_WITH_UNIT(LENGTH_MEASURE(0.01),#375,
'DISTANCE_ACCURACY_VALUE',
'Maximum model space distance between geometric entities at asserted c
onnectivities');
#374=(
GEOMETRIC_REPRESENTATION_CONTEXT(3)
GLOBAL_UNCERTAINTY_ASSIGNED_CONTEXT((#373))
GLOBAL_UNIT_ASSIGNED_CONTEXT((#375,#378,#376))
REPRESENTATION_CONTEXT('','3D')
);
#375=(
LENGTH_UNIT()
NAMED_UNIT(*)
SI_UNIT(.MILLI.,.METRE.)
);
#376=(
NAMED_UNIT(*)
SI_UNIT($,.STERADIAN.)
SOLID_ANGLE_UNIT()
);
#377=DIMENSIONAL_EXPONENTS(0.,0.,0.,0.,0.,0.,0.);
#378=(
CONVERSION_BASED_UNIT('degree',#380)
NAMED_UNIT(#377)
PLANE_ANGLE_UNIT()
);
#379=(
NAMED_UNIT(*)
PLANE_ANGLE_UNIT()
SI_UNIT($,.RADIAN.)
);
#380=PLANE_ANGLE_MEASURE_WITH_UNIT(PLANE_ANGLE_MEASURE(0.01745329252),#379);
#381=SHAPE_DEFINITION_REPRESENTATION(#382,#383);
#382=PRODUCT_DEFINITION_SHAPE('',$,#385);
#383=SHAPE_REPRESENTATION('',(#226),#374);
#384=PRODUCT_DEFINITION_CONTEXT('3D Mechanical Parts',#388,'design');
#385=PRODUCT_DEFINITION('802004','802004',#386,#384);
#386=PRODUCT_DEFINITION_FORMATION('',$,#390);
#387=APPLICATION_PROTOCOL_DEFINITION('international standard',
'automotive_design',2009,#388);
#388=APPLICATION_CONTEXT(
'Core Data for Automotive Mechanical Design Process');
#389=PRODUCT_CONTEXT('3D Mechanical Parts',#388,'mechanical');
#390=PRODUCT('802004','802004',$,(#389));
#391=PRESENTATION_STYLE_ASSIGNMENT((#393));
#392=PRESENTATION_STYLE_ASSIGNMENT((#394));
#393=SURFACE_STYLE_USAGE(.BOTH.,#395);
#394=SURFACE_STYLE_USAGE(.BOTH.,#396);
#395=SURFACE_SIDE_STYLE($,(#397));
#396=SURFACE_SIDE_STYLE($,(#398));
#397=SURFACE_STYLE_FILL_AREA(#399);
#398=SURFACE_STYLE_FILL_AREA(#400);
#399=FILL_AREA_STYLE($,(#401));
#400=FILL_AREA_STYLE($,(#402));
#401=FILL_AREA_STYLE_COLOUR($,#403);
#402=FILL_AREA_STYLE_COLOUR($,#404);
#403=COLOUR_RGB('',0.749019607843137,0.749019607843137,0.749019607843137);
#404=COLOUR_RGB('',0.63921568627451,0.63921568627451,0.686274509803922);
ENDSEC;
END-ISO-10303-21;
