                                                                        S      1
,,,14H802001.stp.ipt,22HAutodesk Inventor 2014,7Hunknown,32,38,7,99,15,,G      1
1.,2,2HMM,1,0.08,15H20151016.102108,0.01,10000.,5Hzeman,,11,0,;         G      2
     406       1                       1                        00000000D      1
     406                       1       3                               0D      2
     186       2                                                00000000D      3
     186             -61       1       0                               0D      4
     514       3                                                00010000D      5
     514                       1       1                               0D      6
     190       4                                                00010000D      7
     190       0     -61       1       1                               0D      8
     190       5                                                00010000D      9
     190       0     -61       1       1                               0D     10
     510       6                                                00010000D     11
     510             -61       1       1                               0D     12
     510       7                                                00010000D     13
     510             -61       1       1                               0D     14
     510       8                                                00010000D     15
     510             -61       1       1                               0D     16
     508       9                                                00010000D     17
     508                       1       1                               0D     18
     508      10                                                00010000D     19
     508                       1       1                               0D     20
     508      11                                                00010000D     21
     508                       1       1                               0D     22
     508      12                                                00010000D     23
     508                       1       1                               0D     24
     124      13                                                00000000D     25
     124                       1       0                               0D     26
     124      14                                                00000000D     27
     124                       1       0                               0D     28
     100      15                                      25        00010000D     29
     100       0               2       0                               0D     30
     100      17                                      27        00010000D     31
     100       0               2       0                               0D     32
     192      19                                                00010000D     33
     192       0     -61       1       1                               0D     34
     123      20                                                00010200D     35
     123       0               1       0                               0D     36
     123      21                                                00010200D     37
     123       0               1       0                               0D     38
     123      22                                                00010200D     39
     123       0               1       0                               0D     40
     123      23                                                00010200D     41
     123       0               1       0                               0D     42
     123      24                                                00010200D     43
     123       0               1       0                               0D     44
     123      25                                                00010200D     45
     123       0               1       0                               0D     46
     116      26                                                00010000D     47
     116       0               1       0                               0D     48
     116      27                                                00010000D     49
     116       0               1       0                               0D     50
     116      28                                                00010000D     51
     116       0               1       0                               0D     52
     502      29                                                00010000D     53
     502                       2       1                               0D     54
     504      31                                                00010001D     55
     504                       1       1                               0D     56
     406      32                                                00000000D     57
     406                       1      15                               0D     58
     314      33                                                00000200D     59
     314                       1       0                               0D     60
     314      34                                                00000200D     61
     314                       1       0                               0D     62
406,2,0,10H802001.stp;                                                 1P      1
186,5,1,0,0,1,57;                                                      3P      2
514,3,11,1,13,1,15,1;                                                  5P      3
190,49,39,41;                                                          7P      4
190,51,43,45;                                                          9P      5
510,33,2,1,17,19;                                                     11P      6
510,7,1,1,21;                                                         13P      7
510,9,1,1,23;                                                         15P      8
508,1,0,55,1,1,0;                                                     17P      9
508,1,0,55,2,0,0;                                                     19P     10
508,1,0,55,1,0,0;                                                     21P     11
508,1,0,55,2,1,0;                                                     23P     12
124,-1.,0.,0.,0.,0.,1.,0.,0.,0.,0.,-1.,10.;                           25P     13
124,-1.,0.,0.,0.,0.,1.,0.,0.,0.,0.,-1.,0.;                            27P     14
100,0.,0.,0.,-10.,-1.22464679914735D-015,-10.,                        29P     15
-1.22464679914735D-015;                                               29P     16
100,0.,0.,0.,-10.,1.22464679914735D-015,-10.,                         31P     17
1.22464679914735D-015;                                                31P     18
192,47,35,10.,37;                                                     33P     19
123,0.,0.,1.;                                                         35P     20
123,-1.,0.,0.;                                                        37P     21
123,0.,0.,1.;                                                         39P     22
123,1.,0.,0.;                                                         41P     23
123,-0.,-0.,-1.;                                                      43P     24
123,1.,0.,0.;                                                         45P     25
116,0.,0.,0.,0;                                                       47P     26
116,0.,0.,10.,0;                                                      49P     27
116,0.,0.,0.,0;                                                       51P     28
502,2,10.,-1.22464679914735D-015,10.,10.,1.22464679914735D-015,       53P     29
0.;                                                                   53P     30
504,2,29,53,1,53,1,31,53,2,53,2;                                      55P     31
406,1,8HTěleso1;                                                     57P     32
314,74.9019607843137,74.9019607843137,74.9019607843137,;              59P     33
314,100.,100.,100.,;                                                  61P     34
S      1G      2D     62P     34                                        T      1
