ISO-10303-21;
HEADER;
/* Generated by software containing ST-Developer
 * from STEP Tools, Inc. (www.steptools.com) 
 */

FILE_DESCRIPTION(
/* description */ ('Trubka pro svorky 10x10'),
/* implementation_level */ '2;1');

FILE_NAME(
/* name */ 'D:\\Work\\Zakazky\\2013\\AlutecKK\\stp\\731110.stp',
/* time_stamp */ '2013-12-08T13:29:03+01:00',
/* author */ ('PC'),
/* organization */ (''),
/* preprocessor_version */ 'ST-DEVELOPER v15.2',
/* originating_system */ 'Autodesk Inventor 2014',
/* authorisation */ '');

FILE_SCHEMA (('AUTOMOTIVE_DESIGN { 1 0 10303 214 3 1 1 }'));
ENDSEC;

DATA;
#10=SHAPE_REPRESENTATION_RELATIONSHIP('SRR','None',#313,#11);
#11=ADVANCED_BREP_SHAPE_REPRESENTATION($,(#194),#304);
#12=STYLED_ITEM($,(#321),#194);
#13=FACE_BOUND($,#33,.T.);
#14=FACE_BOUND($,#34,.T.);
#15=FACE_BOUND($,#35,.T.);
#16=FACE_BOUND($,#36,.T.);
#17=FACE_OUTER_BOUND($,#25,.T.);
#18=FACE_OUTER_BOUND($,#26,.T.);
#19=FACE_OUTER_BOUND($,#27,.T.);
#20=FACE_OUTER_BOUND($,#28,.T.);
#21=FACE_OUTER_BOUND($,#29,.T.);
#22=FACE_OUTER_BOUND($,#30,.T.);
#23=FACE_OUTER_BOUND($,#31,.T.);
#24=FACE_OUTER_BOUND($,#32,.T.);
#25=EDGE_LOOP($,(#125,#126,#127,#128));
#26=EDGE_LOOP($,(#129,#130,#131,#132));
#27=EDGE_LOOP($,(#133,#134,#135,#136));
#28=EDGE_LOOP($,(#137,#138,#139,#140));
#29=EDGE_LOOP($,(#141,#142,#143,#144));
#30=EDGE_LOOP($,(#145,#146,#147,#148));
#31=EDGE_LOOP($,(#149,#150,#151,#152));
#32=EDGE_LOOP($,(#153,#154,#155,#156));
#33=EDGE_LOOP($,(#157,#158,#159,#160));
#34=EDGE_LOOP($,(#161,#162,#163,#164));
#35=EDGE_LOOP($,(#165,#166,#167,#168));
#36=EDGE_LOOP($,(#169,#170,#171,#172));
#37=LINE($,#256,#61);
#38=LINE($,#258,#62);
#39=LINE($,#260,#63);
#40=LINE($,#261,#64);
#41=LINE($,#264,#65);
#42=LINE($,#266,#66);
#43=LINE($,#267,#67);
#44=LINE($,#271,#68);
#45=LINE($,#273,#69);
#46=LINE($,#275,#70);
#47=LINE($,#276,#71);
#48=LINE($,#279,#72);
#49=LINE($,#281,#73);
#50=LINE($,#282,#74);
#51=LINE($,#285,#75);
#52=LINE($,#287,#76);
#53=LINE($,#288,#77);
#54=LINE($,#290,#78);
#55=LINE($,#291,#79);
#56=LINE($,#294,#80);
#57=LINE($,#296,#81);
#58=LINE($,#297,#82);
#59=LINE($,#299,#83);
#60=LINE($,#300,#84);
#61=VECTOR($,#210,6.);
#62=VECTOR($,#211,10.);
#63=VECTOR($,#212,6.);
#64=VECTOR($,#213,10.);
#65=VECTOR($,#216,6.);
#66=VECTOR($,#217,10.);
#67=VECTOR($,#218,6.);
#68=VECTOR($,#221,10.);
#69=VECTOR($,#222,10.);
#70=VECTOR($,#223,10.);
#71=VECTOR($,#224,10.);
#72=VECTOR($,#227,10.);
#73=VECTOR($,#228,10.);
#74=VECTOR($,#229,10.);
#75=VECTOR($,#232,6.);
#76=VECTOR($,#233,10.);
#77=VECTOR($,#234,6.);
#78=VECTOR($,#237,6.);
#79=VECTOR($,#238,6.);
#80=VECTOR($,#241,10.);
#81=VECTOR($,#242,10.);
#82=VECTOR($,#243,10.);
#83=VECTOR($,#246,10.);
#84=VECTOR($,#247,10.);
#85=VERTEX_POINT($,#254);
#86=VERTEX_POINT($,#255);
#87=VERTEX_POINT($,#257);
#88=VERTEX_POINT($,#259);
#89=VERTEX_POINT($,#263);
#90=VERTEX_POINT($,#265);
#91=VERTEX_POINT($,#269);
#92=VERTEX_POINT($,#270);
#93=VERTEX_POINT($,#272);
#94=VERTEX_POINT($,#274);
#95=VERTEX_POINT($,#278);
#96=VERTEX_POINT($,#280);
#97=VERTEX_POINT($,#284);
#98=VERTEX_POINT($,#286);
#99=VERTEX_POINT($,#293);
#100=VERTEX_POINT($,#295);
#101=EDGE_CURVE($,#85,#86,#37,.T.);
#102=EDGE_CURVE($,#87,#86,#38,.T.);
#103=EDGE_CURVE($,#88,#87,#39,.T.);
#104=EDGE_CURVE($,#88,#85,#40,.T.);
#105=EDGE_CURVE($,#86,#89,#41,.T.);
#106=EDGE_CURVE($,#90,#89,#42,.T.);
#107=EDGE_CURVE($,#87,#90,#43,.T.);
#108=EDGE_CURVE($,#91,#92,#44,.T.);
#109=EDGE_CURVE($,#93,#92,#45,.T.);
#110=EDGE_CURVE($,#94,#93,#46,.T.);
#111=EDGE_CURVE($,#94,#91,#47,.T.);
#112=EDGE_CURVE($,#92,#95,#48,.T.);
#113=EDGE_CURVE($,#96,#95,#49,.T.);
#114=EDGE_CURVE($,#93,#96,#50,.T.);
#115=EDGE_CURVE($,#89,#97,#51,.T.);
#116=EDGE_CURVE($,#98,#97,#52,.T.);
#117=EDGE_CURVE($,#90,#98,#53,.T.);
#118=EDGE_CURVE($,#97,#85,#54,.T.);
#119=EDGE_CURVE($,#98,#88,#55,.T.);
#120=EDGE_CURVE($,#95,#99,#56,.T.);
#121=EDGE_CURVE($,#100,#99,#57,.T.);
#122=EDGE_CURVE($,#96,#100,#58,.T.);
#123=EDGE_CURVE($,#99,#91,#59,.T.);
#124=EDGE_CURVE($,#100,#94,#60,.T.);
#125=ORIENTED_EDGE($,*,*,#101,.T.);
#126=ORIENTED_EDGE($,*,*,#102,.F.);
#127=ORIENTED_EDGE($,*,*,#103,.F.);
#128=ORIENTED_EDGE($,*,*,#104,.T.);
#129=ORIENTED_EDGE($,*,*,#105,.T.);
#130=ORIENTED_EDGE($,*,*,#106,.F.);
#131=ORIENTED_EDGE($,*,*,#107,.F.);
#132=ORIENTED_EDGE($,*,*,#102,.T.);
#133=ORIENTED_EDGE($,*,*,#108,.T.);
#134=ORIENTED_EDGE($,*,*,#109,.F.);
#135=ORIENTED_EDGE($,*,*,#110,.F.);
#136=ORIENTED_EDGE($,*,*,#111,.T.);
#137=ORIENTED_EDGE($,*,*,#112,.T.);
#138=ORIENTED_EDGE($,*,*,#113,.F.);
#139=ORIENTED_EDGE($,*,*,#114,.F.);
#140=ORIENTED_EDGE($,*,*,#109,.T.);
#141=ORIENTED_EDGE($,*,*,#115,.T.);
#142=ORIENTED_EDGE($,*,*,#116,.F.);
#143=ORIENTED_EDGE($,*,*,#117,.F.);
#144=ORIENTED_EDGE($,*,*,#106,.T.);
#145=ORIENTED_EDGE($,*,*,#118,.T.);
#146=ORIENTED_EDGE($,*,*,#104,.F.);
#147=ORIENTED_EDGE($,*,*,#119,.F.);
#148=ORIENTED_EDGE($,*,*,#116,.T.);
#149=ORIENTED_EDGE($,*,*,#120,.T.);
#150=ORIENTED_EDGE($,*,*,#121,.F.);
#151=ORIENTED_EDGE($,*,*,#122,.F.);
#152=ORIENTED_EDGE($,*,*,#113,.T.);
#153=ORIENTED_EDGE($,*,*,#123,.T.);
#154=ORIENTED_EDGE($,*,*,#111,.F.);
#155=ORIENTED_EDGE($,*,*,#124,.F.);
#156=ORIENTED_EDGE($,*,*,#121,.T.);
#157=ORIENTED_EDGE($,*,*,#115,.F.);
#158=ORIENTED_EDGE($,*,*,#105,.F.);
#159=ORIENTED_EDGE($,*,*,#101,.F.);
#160=ORIENTED_EDGE($,*,*,#118,.F.);
#161=ORIENTED_EDGE($,*,*,#120,.F.);
#162=ORIENTED_EDGE($,*,*,#112,.F.);
#163=ORIENTED_EDGE($,*,*,#108,.F.);
#164=ORIENTED_EDGE($,*,*,#123,.F.);
#165=ORIENTED_EDGE($,*,*,#117,.T.);
#166=ORIENTED_EDGE($,*,*,#119,.T.);
#167=ORIENTED_EDGE($,*,*,#103,.T.);
#168=ORIENTED_EDGE($,*,*,#107,.T.);
#169=ORIENTED_EDGE($,*,*,#122,.T.);
#170=ORIENTED_EDGE($,*,*,#124,.T.);
#171=ORIENTED_EDGE($,*,*,#110,.T.);
#172=ORIENTED_EDGE($,*,*,#114,.T.);
#173=PLANE($,#196);
#174=PLANE($,#197);
#175=PLANE($,#198);
#176=PLANE($,#199);
#177=PLANE($,#200);
#178=PLANE($,#201);
#179=PLANE($,#202);
#180=PLANE($,#203);
#181=PLANE($,#204);
#182=PLANE($,#205);
#183=ADVANCED_FACE($,(#17),#173,.F.);
#184=ADVANCED_FACE($,(#18),#174,.F.);
#185=ADVANCED_FACE($,(#19),#175,.T.);
#186=ADVANCED_FACE($,(#20),#176,.T.);
#187=ADVANCED_FACE($,(#21),#177,.F.);
#188=ADVANCED_FACE($,(#22),#178,.F.);
#189=ADVANCED_FACE($,(#23),#179,.T.);
#190=ADVANCED_FACE($,(#24),#180,.T.);
#191=ADVANCED_FACE($,(#13,#14),#181,.T.);
#192=ADVANCED_FACE($,(#15,#16),#182,.F.);
#193=CLOSED_SHELL($,(#183,#184,#185,#186,#187,#188,#189,#190,#191,#192));
#194=MANIFOLD_SOLID_BREP('T\X2\011B\X0\leso1',#193);
#195=AXIS2_PLACEMENT_3D('placement',#252,#206,#207);
#196=AXIS2_PLACEMENT_3D($,#253,#208,#209);
#197=AXIS2_PLACEMENT_3D($,#262,#214,#215);
#198=AXIS2_PLACEMENT_3D($,#268,#219,#220);
#199=AXIS2_PLACEMENT_3D($,#277,#225,#226);
#200=AXIS2_PLACEMENT_3D($,#283,#230,#231);
#201=AXIS2_PLACEMENT_3D($,#289,#235,#236);
#202=AXIS2_PLACEMENT_3D($,#292,#239,#240);
#203=AXIS2_PLACEMENT_3D($,#298,#244,#245);
#204=AXIS2_PLACEMENT_3D($,#301,#248,#249);
#205=AXIS2_PLACEMENT_3D($,#302,#250,#251);
#206=DIRECTION('axis',(0.,0.,1.));
#207=DIRECTION('refdir',(1.,0.,0.));
#208=DIRECTION('center_axis',(-1.,0.,0.));
#209=DIRECTION('ref_axis',(0.,0.,1.));
#210=DIRECTION($,(0.,-1.,0.));
#211=DIRECTION($,(0.,0.,1.));
#212=DIRECTION($,(0.,-1.,0.));
#213=DIRECTION($,(0.,0.,1.));
#214=DIRECTION('center_axis',(0.,-1.,0.));
#215=DIRECTION('ref_axis',(0.,0.,-1.));
#216=DIRECTION($,(1.,0.,0.));
#217=DIRECTION($,(0.,0.,1.));
#218=DIRECTION($,(1.,0.,0.));
#219=DIRECTION('center_axis',(0.,1.,0.));
#220=DIRECTION('ref_axis',(0.,0.,1.));
#221=DIRECTION($,(1.,0.,0.));
#222=DIRECTION($,(0.,0.,1.));
#223=DIRECTION($,(1.,0.,0.));
#224=DIRECTION($,(0.,0.,1.));
#225=DIRECTION('center_axis',(1.,0.,0.));
#226=DIRECTION('ref_axis',(0.,0.,-1.));
#227=DIRECTION($,(0.,-1.,0.));
#228=DIRECTION($,(0.,0.,1.));
#229=DIRECTION($,(0.,-1.,0.));
#230=DIRECTION('center_axis',(1.,0.,0.));
#231=DIRECTION('ref_axis',(0.,0.,-1.));
#232=DIRECTION($,(0.,1.,0.));
#233=DIRECTION($,(0.,0.,1.));
#234=DIRECTION($,(0.,1.,0.));
#235=DIRECTION('center_axis',(0.,1.,0.));
#236=DIRECTION('ref_axis',(0.,0.,1.));
#237=DIRECTION($,(-1.,0.,0.));
#238=DIRECTION($,(-1.,0.,0.));
#239=DIRECTION('center_axis',(0.,-1.,0.));
#240=DIRECTION('ref_axis',(0.,0.,-1.));
#241=DIRECTION($,(-1.,0.,0.));
#242=DIRECTION($,(0.,0.,1.));
#243=DIRECTION($,(-1.,0.,0.));
#244=DIRECTION('center_axis',(-1.,0.,0.));
#245=DIRECTION('ref_axis',(0.,0.,1.));
#246=DIRECTION($,(0.,1.,0.));
#247=DIRECTION($,(0.,1.,0.));
#248=DIRECTION('center_axis',(0.,0.,1.));
#249=DIRECTION('ref_axis',(1.,0.,0.));
#250=DIRECTION('center_axis',(0.,0.,1.));
#251=DIRECTION('ref_axis',(1.,0.,0.));
#252=CARTESIAN_POINT('',(0.,0.,0.));
#253=CARTESIAN_POINT('Origin',(-3.,-3.,0.));
#254=CARTESIAN_POINT('',(-3.,3.,10.));
#255=CARTESIAN_POINT('',(-3.,-3.,10.));
#256=CARTESIAN_POINT($,(-3.,-1.5,10.));
#257=CARTESIAN_POINT('',(-3.,-3.,0.));
#258=CARTESIAN_POINT($,(-3.,-3.,0.));
#259=CARTESIAN_POINT('',(-3.,3.,0.));
#260=CARTESIAN_POINT($,(-3.,-1.5,0.));
#261=CARTESIAN_POINT($,(-3.,3.,0.));
#262=CARTESIAN_POINT('Origin',(3.,-3.,0.));
#263=CARTESIAN_POINT('',(3.,-3.,10.));
#264=CARTESIAN_POINT($,(1.5,-3.,10.));
#265=CARTESIAN_POINT('',(3.,-3.,0.));
#266=CARTESIAN_POINT($,(3.,-3.,0.));
#267=CARTESIAN_POINT($,(1.5,-3.,0.));
#268=CARTESIAN_POINT('Origin',(-5.,5.,0.));
#269=CARTESIAN_POINT('',(-5.,5.,10.));
#270=CARTESIAN_POINT('',(5.,5.,10.));
#271=CARTESIAN_POINT($,(-2.5,5.,10.));
#272=CARTESIAN_POINT('',(5.,5.,0.));
#273=CARTESIAN_POINT($,(5.,5.,0.));
#274=CARTESIAN_POINT('',(-5.,5.,0.));
#275=CARTESIAN_POINT($,(-2.5,5.,0.));
#276=CARTESIAN_POINT($,(-5.,5.,0.));
#277=CARTESIAN_POINT('Origin',(5.,5.,0.));
#278=CARTESIAN_POINT('',(5.,-5.,10.));
#279=CARTESIAN_POINT($,(5.,2.5,10.));
#280=CARTESIAN_POINT('',(5.,-5.,0.));
#281=CARTESIAN_POINT($,(5.,-5.,0.));
#282=CARTESIAN_POINT($,(5.,2.5,0.));
#283=CARTESIAN_POINT('Origin',(3.,3.,0.));
#284=CARTESIAN_POINT('',(3.,3.,10.));
#285=CARTESIAN_POINT($,(3.,1.5,10.));
#286=CARTESIAN_POINT('',(3.,3.,0.));
#287=CARTESIAN_POINT($,(3.,3.,0.));
#288=CARTESIAN_POINT($,(3.,1.5,0.));
#289=CARTESIAN_POINT('Origin',(-3.,3.,0.));
#290=CARTESIAN_POINT($,(-1.5,3.,10.));
#291=CARTESIAN_POINT($,(-1.5,3.,0.));
#292=CARTESIAN_POINT('Origin',(5.,-5.,0.));
#293=CARTESIAN_POINT('',(-5.,-5.,10.));
#294=CARTESIAN_POINT($,(2.5,-5.,10.));
#295=CARTESIAN_POINT('',(-5.,-5.,0.));
#296=CARTESIAN_POINT($,(-5.,-5.,0.));
#297=CARTESIAN_POINT($,(2.5,-5.,0.));
#298=CARTESIAN_POINT('Origin',(-5.,-5.,0.));
#299=CARTESIAN_POINT($,(-5.,-2.5,10.));
#300=CARTESIAN_POINT($,(-5.,-2.5,0.));
#301=CARTESIAN_POINT('Origin',(0.,0.,10.));
#302=CARTESIAN_POINT('Origin',(0.,0.,0.));
#303=UNCERTAINTY_MEASURE_WITH_UNIT(LENGTH_MEASURE(0.01),#305,
'DISTANCE_ACCURACY_VALUE',
'Maximum model space distance between geometric entities at asserted c
onnectivities');
#304=(
GEOMETRIC_REPRESENTATION_CONTEXT(3)
GLOBAL_UNCERTAINTY_ASSIGNED_CONTEXT((#303))
GLOBAL_UNIT_ASSIGNED_CONTEXT((#305,#308,#306))
REPRESENTATION_CONTEXT('','3D')
);
#305=(
LENGTH_UNIT()
NAMED_UNIT(*)
SI_UNIT(.MILLI.,.METRE.)
);
#306=(
NAMED_UNIT(*)
SI_UNIT($,.STERADIAN.)
SOLID_ANGLE_UNIT()
);
#307=DIMENSIONAL_EXPONENTS(0.,0.,0.,0.,0.,0.,0.);
#308=(
CONVERSION_BASED_UNIT('degree',#310)
NAMED_UNIT(#307)
PLANE_ANGLE_UNIT()
);
#309=(
NAMED_UNIT(*)
PLANE_ANGLE_UNIT()
SI_UNIT($,.RADIAN.)
);
#310=PLANE_ANGLE_MEASURE_WITH_UNIT(PLANE_ANGLE_MEASURE(0.01745329252),#309);
#311=SHAPE_DEFINITION_REPRESENTATION(#312,#313);
#312=PRODUCT_DEFINITION_SHAPE('',$,#315);
#313=SHAPE_REPRESENTATION('',(#195),#304);
#314=PRODUCT_DEFINITION_CONTEXT('3D Mechanical Parts',#318,'design');
#315=PRODUCT_DEFINITION('731110','731110',#316,#314);
#316=PRODUCT_DEFINITION_FORMATION('',$,#320);
#317=APPLICATION_PROTOCOL_DEFINITION('international standard',
'automotive_design',2009,#318);
#318=APPLICATION_CONTEXT(
'Core Data for Automotive Mechanical Design Process');
#319=PRODUCT_CONTEXT('3D Mechanical Parts',#318,'mechanical');
#320=PRODUCT('731110','731110',$,(#319));
#321=PRESENTATION_STYLE_ASSIGNMENT((#322));
#322=SURFACE_STYLE_USAGE(.BOTH.,#323);
#323=SURFACE_SIDE_STYLE($,(#324));
#324=SURFACE_STYLE_FILL_AREA(#325);
#325=FILL_AREA_STYLE($,(#326));
#326=FILL_AREA_STYLE_COLOUR($,#327);
#327=COLOUR_RGB('',0.811764705882353,0.8,0.823529411764706);
ENDSEC;
END-ISO-10303-21;
