                                                                        S      1
,,,14H731012.stp.ipt,22HAutodesk Inventor 2014,7Hunknown,32,38,7,99,15,,G      1
1.,2,2HMM,1,0.08,15H20151016.102051,0.01,10000.,5Hzeman,,11,0,;         G      2
     406       1                       1                        00000000D      1
     406                       1       3                               0D      2
     186       2                                                00000000D      3
     186             -85       1       0                               0D      4
     514       3                                                00010000D      5
     514                       1       1                               0D      6
     190       4                                                00010000D      7
     190       0     -85       1       1                               0D      8
     190       5                                                00010000D      9
     190       0     -85       1       1                               0D     10
     192       6                                                00010000D     11
     192       0     -85       1       1                               0D     12
     123       7                                                00010200D     13
     123       0               1       0                               0D     14
     123       8                                                00010200D     15
     123       0               1       0                               0D     16
     123       9                                                00010200D     17
     123       0               1       0                               0D     18
     123      10                                                00010200D     19
     123       0               1       0                               0D     20
     123      11                                                00010200D     21
     123       0               1       0                               0D     22
     123      12                                                00010200D     23
     123       0               1       0                               0D     24
     116      13                                                00010000D     25
     116       0               1       0                               0D     26
     116      14                                                00010000D     27
     116       0               1       0                               0D     28
     116      15                                                00010000D     29
     116       0               1       0                               0D     30
     510      16                                                00010000D     31
     510             -85       1       1                               0D     32
     510      17                                                00010000D     33
     510             -85       1       1                               0D     34
     510      18                                                00010000D     35
     510             -85       1       1                               0D     36
     510      19                                                00010000D     37
     510             -85       1       1                               0D     38
     508      20                                                00010000D     39
     508                       1       1                               0D     40
     508      21                                                00010000D     41
     508                       1       1                               0D     42
     508      22                                                00010000D     43
     508                       1       1                               0D     44
     508      23                                                00010000D     45
     508                       1       1                               0D     46
     508      24                                                00010000D     47
     508                       1       1                               0D     48
     508      25                                                00010000D     49
     508                       1       1                               0D     50
     508      26                                                00010000D     51
     508                       1       1                               0D     52
     124      27                                                00000000D     53
     124                       1       0                               0D     54
     124      28                                                00000000D     55
     124                       1       0                               0D     56
     124      29                                                00000000D     57
     124                       1       0                               0D     58
     124      30                                                00000000D     59
     124                       1       0                               0D     60
     100      31                                      53        00010000D     61
     100       0               1       0                               0D     62
     100      32                                      55        00010000D     63
     100       0               1       0                               0D     64
     100      33                                      57        00010000D     65
     100       0               1       0                               0D     66
     100      34                                      59        00010000D     67
     100       0               1       0                               0D     68
     120      35                                                00010000D     69
     120       0     -85       1       0                               0D     70
     110      36                                                00010000D     71
     110       0               1       0                               0D     72
     110      37                                                00010000D     73
     110       0               1       0                               0D     74
     110      38                                                00010000D     75
     110       0               1       0                               0D     76
     502      39                                                00010000D     77
     502                       2       1                               0D     78
     504      41                                                00010001D     79
     504                       2       1                               0D     80
     406      43                                                00000000D     81
     406                       1      15                               0D     82
     314      44                                                00000200D     83
     314                       1       0                               0D     84
     314      45                                                00000200D     85
     314                       1       0                               0D     86
406,2,0,10H731012.stp;                                                 1P      1
186,5,1,0,0,1,81;                                                      3P      2
514,4,31,1,33,1,35,1,37,1;                                             5P      3
190,27,17,19;                                                          7P      4
190,29,21,23;                                                          9P      5
192,25,13,6.,15;                                                      11P      6
123,0.,0.,1.;                                                         13P      7
123,-1.,0.,0.;                                                        15P      8
123,0.,0.,1.;                                                         17P      9
123,1.,0.,0.;                                                         19P     10
123,-0.,-0.,-1.;                                                      21P     11
123,1.,0.,0.;                                                         23P     12
116,0.,0.,0.,0;                                                       25P     13
116,0.,0.,150.,0;                                                     27P     14
116,0.,0.,0.,0;                                                       29P     15
510,69,1,1,39;                                                        31P     16
510,11,2,1,41,43;                                                     33P     17
510,7,2,1,45,47;                                                      35P     18
510,9,2,1,49,51;                                                      37P     19
508,4,0,79,1,0,0,0,79,2,1,0,0,79,3,1,0,0,79,2,0,0;                    39P     20
508,1,0,79,4,1,0;                                                     41P     21
508,1,0,79,5,0,0;                                                     43P     22
508,1,0,79,4,0,0;                                                     45P     23
508,1,0,79,3,0,0;                                                     47P     24
508,1,0,79,5,1,0;                                                     49P     25
508,1,0,79,1,1,0;                                                     51P     26
124,-1.,-0.,0.,0.,-0.,-1.,0.,0.,0.,0.,1.,0.;                          53P     27
124,-1.,-0.,0.,0.,-0.,-1.,0.,0.,0.,0.,1.,150.;                        55P     28
124,-1.,0.,0.,0.,0.,1.,0.,0.,0.,0.,-1.,150.;                          57P     29
124,-1.,0.,0.,0.,0.,1.,0.,0.,0.,0.,-1.,0.;                            59P     30
100,0.,0.,0.,-5.,-6.123234D-016,-5.,-6.123234D-016;                   61P     31
100,0.,0.,0.,-5.,-6.123234D-016,-5.,-6.123234D-016;                   63P     32
100,0.,0.,0.,-6.,-7.347881D-016,-6.,-7.347881D-016;                   65P     33
100,0.,0.,0.,-6.,7.347881D-016,-6.,7.347881D-016;                     67P     34
120,71,73,0.,6.28318530717959;                                        69P     35
110,0.,0.,0.,0.,0.,1.;                                                71P     36
110,5.,6.12323399573677D-016,0.,5.,6.12323399573677D-016,150.;        73P     37
110,5.,6.123234D-016,0.,5.,6.123234D-016,150.;                        75P     38
502,4,5.,6.123234D-016,0.,5.,6.123234D-016,150.,6.,                   77P     39
-7.347881D-016,150.,6.,7.347881D-016,0.;                              77P     40
504,5,61,77,1,77,1,75,77,1,77,2,63,77,2,77,2,65,77,3,77,3,67,77,      79P     41
4,77,4;                                                               79P     42
406,1,8HTěleso1;                                                     81P     43
314,74.9019607843137,74.9019607843137,74.9019607843137,;              83P     44
314,84.7058823529412,83.921568627451,83.921568627451,;                85P     45
S      1G      2D     86P     45                                        T      1
