ISO-10303-21;
HEADER;
/* Generated by software containing ST-Developer
 * from STEP Tools, Inc. (www.steptools.com) 
 */

FILE_DESCRIPTION(
/* description */ ('P\X2\011B\X0\n\X2\011B\X0\n\X\E9 PVC, B\X\EDl\X\E1
 - 8 mm'),
/* implementation_level */ '2;1');

FILE_NAME(
/* name */ 'D:\\Work\\Zakazky\\2016\\AlutecKK\\info2\\729002.stp',
/* time_stamp */ '2016-05-02T07:35:02+02:00',
/* author */ ('Fran\X2\010D\X0\eov\X\E1'),
/* organization */ (''),
/* preprocessor_version */ 'ST-DEVELOPER v15.2',
/* originating_system */ 'Autodesk Inventor 2014',
/* authorisation */ '');

FILE_SCHEMA (('AUTOMOTIVE_DESIGN { 1 0 10303 214 3 1 1 }'));
ENDSEC;

DATA;
#10=MECHANICAL_DESIGN_GEOMETRIC_PRESENTATION_REPRESENTATION('',(#13),#171);
#11=SHAPE_REPRESENTATION_RELATIONSHIP('SRR','None',#180,#12);
#12=ADVANCED_BREP_SHAPE_REPRESENTATION($,(#107),#170);
#13=STYLED_ITEM('',(#189),#107);
#14=FACE_OUTER_BOUND('',#20,.T.);
#15=FACE_OUTER_BOUND('',#21,.T.);
#16=FACE_OUTER_BOUND('',#22,.T.);
#17=FACE_OUTER_BOUND('',#23,.T.);
#18=FACE_OUTER_BOUND('',#24,.T.);
#19=FACE_OUTER_BOUND('',#25,.T.);
#20=EDGE_LOOP('',(#70,#71,#72,#73));
#21=EDGE_LOOP('',(#74,#75,#76,#77));
#22=EDGE_LOOP('',(#78,#79,#80,#81));
#23=EDGE_LOOP('',(#82,#83,#84,#85));
#24=EDGE_LOOP('',(#86,#87,#88,#89));
#25=EDGE_LOOP('',(#90,#91,#92,#93));
#26=LINE('',#145,#38);
#27=LINE('',#147,#39);
#28=LINE('',#149,#40);
#29=LINE('',#150,#41);
#30=LINE('',#153,#42);
#31=LINE('',#155,#43);
#32=LINE('',#156,#44);
#33=LINE('',#159,#45);
#34=LINE('',#161,#46);
#35=LINE('',#162,#47);
#36=LINE('',#164,#48);
#37=LINE('',#165,#49);
#38=VECTOR('',#119,100.);
#39=VECTOR('',#120,8.);
#40=VECTOR('',#121,100.);
#41=VECTOR('',#122,8.);
#42=VECTOR('',#125,100.);
#43=VECTOR('',#126,8.);
#44=VECTOR('',#127,100.);
#45=VECTOR('',#130,100.);
#46=VECTOR('',#131,8.);
#47=VECTOR('',#132,100.);
#48=VECTOR('',#135,100.);
#49=VECTOR('',#136,100.);
#50=VERTEX_POINT('',#143);
#51=VERTEX_POINT('',#144);
#52=VERTEX_POINT('',#146);
#53=VERTEX_POINT('',#148);
#54=VERTEX_POINT('',#152);
#55=VERTEX_POINT('',#154);
#56=VERTEX_POINT('',#158);
#57=VERTEX_POINT('',#160);
#58=EDGE_CURVE('',#50,#51,#26,.T.);
#59=EDGE_CURVE('',#52,#51,#27,.T.);
#60=EDGE_CURVE('',#52,#53,#28,.T.);
#61=EDGE_CURVE('',#53,#50,#29,.T.);
#62=EDGE_CURVE('',#51,#54,#30,.T.);
#63=EDGE_CURVE('',#55,#54,#31,.T.);
#64=EDGE_CURVE('',#55,#52,#32,.T.);
#65=EDGE_CURVE('',#54,#56,#33,.T.);
#66=EDGE_CURVE('',#57,#56,#34,.T.);
#67=EDGE_CURVE('',#57,#55,#35,.T.);
#68=EDGE_CURVE('',#56,#50,#36,.T.);
#69=EDGE_CURVE('',#53,#57,#37,.T.);
#70=ORIENTED_EDGE('',*,*,#58,.T.);
#71=ORIENTED_EDGE('',*,*,#59,.F.);
#72=ORIENTED_EDGE('',*,*,#60,.T.);
#73=ORIENTED_EDGE('',*,*,#61,.T.);
#74=ORIENTED_EDGE('',*,*,#62,.T.);
#75=ORIENTED_EDGE('',*,*,#63,.F.);
#76=ORIENTED_EDGE('',*,*,#64,.T.);
#77=ORIENTED_EDGE('',*,*,#59,.T.);
#78=ORIENTED_EDGE('',*,*,#65,.T.);
#79=ORIENTED_EDGE('',*,*,#66,.F.);
#80=ORIENTED_EDGE('',*,*,#67,.T.);
#81=ORIENTED_EDGE('',*,*,#63,.T.);
#82=ORIENTED_EDGE('',*,*,#68,.T.);
#83=ORIENTED_EDGE('',*,*,#61,.F.);
#84=ORIENTED_EDGE('',*,*,#69,.T.);
#85=ORIENTED_EDGE('',*,*,#66,.T.);
#86=ORIENTED_EDGE('',*,*,#69,.F.);
#87=ORIENTED_EDGE('',*,*,#60,.F.);
#88=ORIENTED_EDGE('',*,*,#64,.F.);
#89=ORIENTED_EDGE('',*,*,#67,.F.);
#90=ORIENTED_EDGE('',*,*,#58,.F.);
#91=ORIENTED_EDGE('',*,*,#68,.F.);
#92=ORIENTED_EDGE('',*,*,#65,.F.);
#93=ORIENTED_EDGE('',*,*,#62,.F.);
#94=PLANE('',#109);
#95=PLANE('',#110);
#96=PLANE('',#111);
#97=PLANE('',#112);
#98=PLANE('',#113);
#99=PLANE('',#114);
#100=ADVANCED_FACE('',(#14),#94,.T.);
#101=ADVANCED_FACE('',(#15),#95,.T.);
#102=ADVANCED_FACE('',(#16),#96,.T.);
#103=ADVANCED_FACE('',(#17),#97,.T.);
#104=ADVANCED_FACE('',(#18),#98,.F.);
#105=ADVANCED_FACE('',(#19),#99,.T.);
#106=CLOSED_SHELL('',(#100,#101,#102,#103,#104,#105));
#107=MANIFOLD_SOLID_BREP('T\X2\011B\X0\leso1',#106);
#108=AXIS2_PLACEMENT_3D('placement',#141,#115,#116);
#109=AXIS2_PLACEMENT_3D('',#142,#117,#118);
#110=AXIS2_PLACEMENT_3D('',#151,#123,#124);
#111=AXIS2_PLACEMENT_3D('',#157,#128,#129);
#112=AXIS2_PLACEMENT_3D('',#163,#133,#134);
#113=AXIS2_PLACEMENT_3D('',#166,#137,#138);
#114=AXIS2_PLACEMENT_3D('',#167,#139,#140);
#115=DIRECTION('axis',(0.,0.,1.));
#116=DIRECTION('refdir',(1.,0.,0.));
#117=DIRECTION('center_axis',(-3.5527136788005E-016,0.,-1.));
#118=DIRECTION('ref_axis',(-1.,0.,0.));
#119=DIRECTION('',(1.,0.,-3.5527136788005E-016));
#120=DIRECTION('',(0.,1.,0.));
#121=DIRECTION('',(-1.,0.,3.5527136788005E-016));
#122=DIRECTION('',(0.,1.,0.));
#123=DIRECTION('center_axis',(1.,0.,-1.85825683338866E-017));
#124=DIRECTION('ref_axis',(-1.85825683338866E-017,0.,-1.));
#125=DIRECTION('',(1.85825683338866E-017,0.,1.));
#126=DIRECTION('',(0.,1.,0.));
#127=DIRECTION('',(-1.85825683338866E-017,0.,-1.));
#128=DIRECTION('center_axis',(0.,0.,1.));
#129=DIRECTION('ref_axis',(1.,0.,0.));
#130=DIRECTION('',(-1.,0.,0.));
#131=DIRECTION('',(0.,1.,0.));
#132=DIRECTION('',(1.,0.,0.));
#133=DIRECTION('center_axis',(-1.,0.,0.));
#134=DIRECTION('ref_axis',(0.,0.,1.));
#135=DIRECTION('',(0.,0.,-1.));
#136=DIRECTION('',(0.,0.,1.));
#137=DIRECTION('center_axis',(0.,1.,0.));
#138=DIRECTION('ref_axis',(0.,0.,1.));
#139=DIRECTION('center_axis',(0.,1.,0.));
#140=DIRECTION('ref_axis',(0.,0.,1.));
#141=CARTESIAN_POINT('',(0.,0.,0.));
#142=CARTESIAN_POINT('Origin',(-100.,0.,-100.));
#143=CARTESIAN_POINT('',(-100.,8.,-100.));
#144=CARTESIAN_POINT('',(0.,8.,-100.));
#145=CARTESIAN_POINT('',(0.,8.,-100.));
#146=CARTESIAN_POINT('',(0.,0.,-100.));
#147=CARTESIAN_POINT('',(0.,0.,-100.));
#148=CARTESIAN_POINT('',(-100.,0.,-100.));
#149=CARTESIAN_POINT('',(0.,0.,-100.));
#150=CARTESIAN_POINT('',(-100.,0.,-100.));
#151=CARTESIAN_POINT('Origin',(0.,0.,-100.));
#152=CARTESIAN_POINT('',(1.85825683338866E-015,8.,0.));
#153=CARTESIAN_POINT('',(1.85825683338866E-015,8.,0.));
#154=CARTESIAN_POINT('',(1.85825683338866E-015,0.,0.));
#155=CARTESIAN_POINT('',(1.85825683338866E-015,0.,0.));
#156=CARTESIAN_POINT('',(1.85825683338866E-015,0.,0.));
#157=CARTESIAN_POINT('Origin',(1.85825683338866E-015,0.,0.));
#158=CARTESIAN_POINT('',(-100.,8.,0.));
#159=CARTESIAN_POINT('',(-100.,8.,0.));
#160=CARTESIAN_POINT('',(-100.,0.,0.));
#161=CARTESIAN_POINT('',(-100.,0.,0.));
#162=CARTESIAN_POINT('',(-100.,0.,0.));
#163=CARTESIAN_POINT('Origin',(-100.,0.,0.));
#164=CARTESIAN_POINT('',(-100.,8.,-100.));
#165=CARTESIAN_POINT('',(-100.,0.,-100.));
#166=CARTESIAN_POINT('Origin',(-50.,0.,-50.));
#167=CARTESIAN_POINT('Origin',(-50.,8.,-50.));
#168=UNCERTAINTY_MEASURE_WITH_UNIT(LENGTH_MEASURE(0.01),#172,
'DISTANCE_ACCURACY_VALUE',
'Maximum model space distance between geometric entities at asserted c
onnectivities');
#169=UNCERTAINTY_MEASURE_WITH_UNIT(LENGTH_MEASURE(1.E-006),#172,
'DISTANCE_ACCURACY_VALUE',
'Maximum model space distance between geometric entities at asserted c
onnectivities');
#170=(
GEOMETRIC_REPRESENTATION_CONTEXT(3)
GLOBAL_UNCERTAINTY_ASSIGNED_CONTEXT((#168))
GLOBAL_UNIT_ASSIGNED_CONTEXT((#172,#175,#173))
REPRESENTATION_CONTEXT('','3D')
);
#171=(
GEOMETRIC_REPRESENTATION_CONTEXT(3)
GLOBAL_UNCERTAINTY_ASSIGNED_CONTEXT((#169))
GLOBAL_UNIT_ASSIGNED_CONTEXT((#172,#175,#173))
REPRESENTATION_CONTEXT('','3D')
);
#172=(
LENGTH_UNIT()
NAMED_UNIT(*)
SI_UNIT(.MILLI.,.METRE.)
);
#173=(
NAMED_UNIT(*)
SI_UNIT($,.STERADIAN.)
SOLID_ANGLE_UNIT()
);
#174=DIMENSIONAL_EXPONENTS(0.,0.,0.,0.,0.,0.,0.);
#175=(
CONVERSION_BASED_UNIT('degree',#177)
NAMED_UNIT(#174)
PLANE_ANGLE_UNIT()
);
#176=(
NAMED_UNIT(*)
PLANE_ANGLE_UNIT()
SI_UNIT($,.RADIAN.)
);
#177=PLANE_ANGLE_MEASURE_WITH_UNIT(PLANE_ANGLE_MEASURE(0.01745329252),#176);
#178=SHAPE_DEFINITION_REPRESENTATION(#179,#180);
#179=PRODUCT_DEFINITION_SHAPE('',$,#182);
#180=SHAPE_REPRESENTATION('',(#108),#170);
#181=PRODUCT_DEFINITION_CONTEXT('part definition',#186,'design');
#182=PRODUCT_DEFINITION('729002','729002',#183,#181);
#183=PRODUCT_DEFINITION_FORMATION('',$,#188);
#184=PRODUCT_RELATED_PRODUCT_CATEGORY('729002','729002',(#188));
#185=APPLICATION_PROTOCOL_DEFINITION('international standard',
'automotive_design',2009,#186);
#186=APPLICATION_CONTEXT(
'Core Data for Automotive Mechanical Design Process');
#187=PRODUCT_CONTEXT('part definition',#186,'mechanical');
#188=PRODUCT('729002','729002',$,(#187));
#189=PRESENTATION_STYLE_ASSIGNMENT((#190));
#190=SURFACE_STYLE_USAGE(.BOTH.,#191);
#191=SURFACE_SIDE_STYLE($,(#192));
#192=SURFACE_STYLE_FILL_AREA(#193);
#193=FILL_AREA_STYLE($,(#194));
#194=FILL_AREA_STYLE_COLOUR($,#195);
#195=COLOUR_RGB('',1.,1.,1.);
ENDSEC;
END-ISO-10303-21;
