ISO-10303-21;
HEADER;
/* Generated by software containing ST-Developer
 * from STEP Tools, Inc. (www.steptools.com) 
 */

FILE_DESCRIPTION(
/* description */ ('Kluzn\X\FD profil'),
/* implementation_level */ '2;1');

FILE_NAME(
/* name */ 'C:\\Vault_pracovn\X\ED\\Zak\X\E1zky\\Kal\X\E1b_pokus\\7005
00.stp',
/* time_stamp */ '2014-08-19T09:07:50+02:00',
/* author */ ('jank'),
/* organization */ (''),
/* preprocessor_version */ 'ST-DEVELOPER v15.2',
/* originating_system */ 'Autodesk Inventor 2014',
/* authorisation */ '');

FILE_SCHEMA (('CONFIG_CONTROL_DESIGN'));
ENDSEC;

DATA;
#10=SHAPE_REPRESENTATION_RELATIONSHIP('SRR','None',#705,#11);
#11=ADVANCED_BREP_SHAPE_REPRESENTATION($,(#442),#696);
#12=STYLED_ITEM($,(#713),#442);
#13=FACE_OUTER_BOUND($,#35,.T.);
#14=FACE_OUTER_BOUND($,#36,.T.);
#15=FACE_OUTER_BOUND($,#37,.T.);
#16=FACE_OUTER_BOUND($,#38,.T.);
#17=FACE_OUTER_BOUND($,#39,.T.);
#18=FACE_OUTER_BOUND($,#40,.T.);
#19=FACE_OUTER_BOUND($,#41,.T.);
#20=FACE_OUTER_BOUND($,#42,.T.);
#21=FACE_OUTER_BOUND($,#43,.T.);
#22=FACE_OUTER_BOUND($,#44,.T.);
#23=FACE_OUTER_BOUND($,#45,.T.);
#24=FACE_OUTER_BOUND($,#46,.T.);
#25=FACE_OUTER_BOUND($,#47,.T.);
#26=FACE_OUTER_BOUND($,#48,.T.);
#27=FACE_OUTER_BOUND($,#49,.T.);
#28=FACE_OUTER_BOUND($,#50,.T.);
#29=FACE_OUTER_BOUND($,#51,.T.);
#30=FACE_OUTER_BOUND($,#52,.T.);
#31=FACE_OUTER_BOUND($,#53,.T.);
#32=FACE_OUTER_BOUND($,#54,.T.);
#33=FACE_OUTER_BOUND($,#55,.T.);
#34=FACE_OUTER_BOUND($,#56,.T.);
#35=EDGE_LOOP($,(#277,#278,#279,#280));
#36=EDGE_LOOP($,(#281,#282,#283,#284));
#37=EDGE_LOOP($,(#285,#286,#287,#288));
#38=EDGE_LOOP($,(#289,#290,#291,#292));
#39=EDGE_LOOP($,(#293,#294,#295,#296));
#40=EDGE_LOOP($,(#297,#298,#299,#300));
#41=EDGE_LOOP($,(#301,#302,#303,#304));
#42=EDGE_LOOP($,(#305,#306,#307,#308));
#43=EDGE_LOOP($,(#309,#310,#311,#312));
#44=EDGE_LOOP($,(#313,#314,#315,#316));
#45=EDGE_LOOP($,(#317,#318,#319,#320));
#46=EDGE_LOOP($,(#321,#322,#323,#324));
#47=EDGE_LOOP($,(#325,#326,#327,#328));
#48=EDGE_LOOP($,(#329,#330,#331,#332));
#49=EDGE_LOOP($,(#333,#334,#335,#336));
#50=EDGE_LOOP($,(#337,#338,#339,#340));
#51=EDGE_LOOP($,(#341,#342,#343,#344));
#52=EDGE_LOOP($,(#345,#346,#347,#348));
#53=EDGE_LOOP($,(#349,#350,#351,#352));
#54=EDGE_LOOP($,(#353,#354,#355,#356));
#55=EDGE_LOOP($,(#357,#358,#359,#360,#361,#362,#363,#364,#365,#366,#367,
#368,#369,#370,#371,#372,#373,#374,#375,#376));
#56=EDGE_LOOP($,(#377,#378,#379,#380,#381,#382,#383,#384,#385,#386,#387,
#388,#389,#390,#391,#392,#393,#394,#395,#396));
#57=LINE($,#576,#117);
#58=LINE($,#578,#118);
#59=LINE($,#580,#119);
#60=LINE($,#581,#120);
#61=LINE($,#584,#121);
#62=LINE($,#586,#122);
#63=LINE($,#587,#123);
#64=LINE($,#590,#124);
#65=LINE($,#592,#125);
#66=LINE($,#593,#126);
#67=LINE($,#596,#127);
#68=LINE($,#598,#128);
#69=LINE($,#599,#129);
#70=LINE($,#602,#130);
#71=LINE($,#604,#131);
#72=LINE($,#605,#132);
#73=LINE($,#608,#133);
#74=LINE($,#610,#134);
#75=LINE($,#611,#135);
#76=LINE($,#614,#136);
#77=LINE($,#616,#137);
#78=LINE($,#617,#138);
#79=LINE($,#620,#139);
#80=LINE($,#622,#140);
#81=LINE($,#623,#141);
#82=LINE($,#626,#142);
#83=LINE($,#628,#143);
#84=LINE($,#629,#144);
#85=LINE($,#632,#145);
#86=LINE($,#634,#146);
#87=LINE($,#635,#147);
#88=LINE($,#638,#148);
#89=LINE($,#640,#149);
#90=LINE($,#641,#150);
#91=LINE($,#644,#151);
#92=LINE($,#646,#152);
#93=LINE($,#647,#153);
#94=LINE($,#650,#154);
#95=LINE($,#652,#155);
#96=LINE($,#653,#156);
#97=LINE($,#656,#157);
#98=LINE($,#658,#158);
#99=LINE($,#659,#159);
#100=LINE($,#662,#160);
#101=LINE($,#664,#161);
#102=LINE($,#665,#162);
#103=LINE($,#668,#163);
#104=LINE($,#670,#164);
#105=LINE($,#671,#165);
#106=LINE($,#674,#166);
#107=LINE($,#676,#167);
#108=LINE($,#677,#168);
#109=LINE($,#680,#169);
#110=LINE($,#682,#170);
#111=LINE($,#683,#171);
#112=LINE($,#686,#172);
#113=LINE($,#688,#173);
#114=LINE($,#689,#174);
#115=LINE($,#691,#175);
#116=LINE($,#692,#176);
#117=VECTOR($,#470,13.4);
#118=VECTOR($,#471,100.);
#119=VECTOR($,#472,13.4);
#120=VECTOR($,#473,100.);
#121=VECTOR($,#476,5.7);
#122=VECTOR($,#477,100.);
#123=VECTOR($,#478,5.7);
#124=VECTOR($,#481,2.65000000000001);
#125=VECTOR($,#482,100.);
#126=VECTOR($,#483,2.65000000000001);
#127=VECTOR($,#486,4.3);
#128=VECTOR($,#487,100.);
#129=VECTOR($,#488,4.3);
#130=VECTOR($,#491,8.45);
#131=VECTOR($,#492,100.);
#132=VECTOR($,#493,8.45);
#133=VECTOR($,#496,5.);
#134=VECTOR($,#497,100.);
#135=VECTOR($,#498,5.);
#136=VECTOR($,#501,8.45);
#137=VECTOR($,#502,100.);
#138=VECTOR($,#503,8.45);
#139=VECTOR($,#506,4.3);
#140=VECTOR($,#507,100.);
#141=VECTOR($,#508,4.3);
#142=VECTOR($,#511,2.65);
#143=VECTOR($,#512,100.);
#144=VECTOR($,#513,2.65);
#145=VECTOR($,#516,5.69999999999999);
#146=VECTOR($,#517,100.);
#147=VECTOR($,#518,5.69999999999999);
#148=VECTOR($,#521,13.4);
#149=VECTOR($,#522,100.);
#150=VECTOR($,#523,13.4);
#151=VECTOR($,#526,5.69999999999999);
#152=VECTOR($,#527,100.);
#153=VECTOR($,#528,5.69999999999999);
#154=VECTOR($,#531,2.65000000000001);
#155=VECTOR($,#532,100.);
#156=VECTOR($,#533,2.65000000000001);
#157=VECTOR($,#536,4.3);
#158=VECTOR($,#537,100.);
#159=VECTOR($,#538,4.3);
#160=VECTOR($,#541,8.45);
#161=VECTOR($,#542,100.);
#162=VECTOR($,#543,8.45);
#163=VECTOR($,#546,5.);
#164=VECTOR($,#547,100.);
#165=VECTOR($,#548,5.);
#166=VECTOR($,#551,8.45);
#167=VECTOR($,#552,100.);
#168=VECTOR($,#553,8.45);
#169=VECTOR($,#556,4.3);
#170=VECTOR($,#557,100.);
#171=VECTOR($,#558,4.3);
#172=VECTOR($,#561,2.65);
#173=VECTOR($,#562,100.);
#174=VECTOR($,#563,2.65);
#175=VECTOR($,#566,5.7);
#176=VECTOR($,#567,5.7);
#177=VERTEX_POINT($,#574);
#178=VERTEX_POINT($,#575);
#179=VERTEX_POINT($,#577);
#180=VERTEX_POINT($,#579);
#181=VERTEX_POINT($,#583);
#182=VERTEX_POINT($,#585);
#183=VERTEX_POINT($,#589);
#184=VERTEX_POINT($,#591);
#185=VERTEX_POINT($,#595);
#186=VERTEX_POINT($,#597);
#187=VERTEX_POINT($,#601);
#188=VERTEX_POINT($,#603);
#189=VERTEX_POINT($,#607);
#190=VERTEX_POINT($,#609);
#191=VERTEX_POINT($,#613);
#192=VERTEX_POINT($,#615);
#193=VERTEX_POINT($,#619);
#194=VERTEX_POINT($,#621);
#195=VERTEX_POINT($,#625);
#196=VERTEX_POINT($,#627);
#197=VERTEX_POINT($,#631);
#198=VERTEX_POINT($,#633);
#199=VERTEX_POINT($,#637);
#200=VERTEX_POINT($,#639);
#201=VERTEX_POINT($,#643);
#202=VERTEX_POINT($,#645);
#203=VERTEX_POINT($,#649);
#204=VERTEX_POINT($,#651);
#205=VERTEX_POINT($,#655);
#206=VERTEX_POINT($,#657);
#207=VERTEX_POINT($,#661);
#208=VERTEX_POINT($,#663);
#209=VERTEX_POINT($,#667);
#210=VERTEX_POINT($,#669);
#211=VERTEX_POINT($,#673);
#212=VERTEX_POINT($,#675);
#213=VERTEX_POINT($,#679);
#214=VERTEX_POINT($,#681);
#215=VERTEX_POINT($,#685);
#216=VERTEX_POINT($,#687);
#217=EDGE_CURVE($,#177,#178,#57,.T.);
#218=EDGE_CURVE($,#179,#178,#58,.T.);
#219=EDGE_CURVE($,#180,#179,#59,.T.);
#220=EDGE_CURVE($,#180,#177,#60,.T.);
#221=EDGE_CURVE($,#178,#181,#61,.T.);
#222=EDGE_CURVE($,#182,#181,#62,.T.);
#223=EDGE_CURVE($,#179,#182,#63,.T.);
#224=EDGE_CURVE($,#181,#183,#64,.T.);
#225=EDGE_CURVE($,#184,#183,#65,.T.);
#226=EDGE_CURVE($,#182,#184,#66,.T.);
#227=EDGE_CURVE($,#183,#185,#67,.T.);
#228=EDGE_CURVE($,#186,#185,#68,.T.);
#229=EDGE_CURVE($,#184,#186,#69,.T.);
#230=EDGE_CURVE($,#185,#187,#70,.T.);
#231=EDGE_CURVE($,#188,#187,#71,.T.);
#232=EDGE_CURVE($,#186,#188,#72,.T.);
#233=EDGE_CURVE($,#187,#189,#73,.T.);
#234=EDGE_CURVE($,#190,#189,#74,.T.);
#235=EDGE_CURVE($,#188,#190,#75,.T.);
#236=EDGE_CURVE($,#189,#191,#76,.T.);
#237=EDGE_CURVE($,#192,#191,#77,.T.);
#238=EDGE_CURVE($,#190,#192,#78,.T.);
#239=EDGE_CURVE($,#191,#193,#79,.T.);
#240=EDGE_CURVE($,#194,#193,#80,.T.);
#241=EDGE_CURVE($,#192,#194,#81,.T.);
#242=EDGE_CURVE($,#193,#195,#82,.T.);
#243=EDGE_CURVE($,#196,#195,#83,.T.);
#244=EDGE_CURVE($,#194,#196,#84,.T.);
#245=EDGE_CURVE($,#195,#197,#85,.T.);
#246=EDGE_CURVE($,#198,#197,#86,.T.);
#247=EDGE_CURVE($,#196,#198,#87,.T.);
#248=EDGE_CURVE($,#197,#199,#88,.T.);
#249=EDGE_CURVE($,#200,#199,#89,.T.);
#250=EDGE_CURVE($,#198,#200,#90,.T.);
#251=EDGE_CURVE($,#199,#201,#91,.T.);
#252=EDGE_CURVE($,#202,#201,#92,.T.);
#253=EDGE_CURVE($,#200,#202,#93,.T.);
#254=EDGE_CURVE($,#201,#203,#94,.T.);
#255=EDGE_CURVE($,#204,#203,#95,.T.);
#256=EDGE_CURVE($,#202,#204,#96,.T.);
#257=EDGE_CURVE($,#203,#205,#97,.T.);
#258=EDGE_CURVE($,#206,#205,#98,.T.);
#259=EDGE_CURVE($,#204,#206,#99,.T.);
#260=EDGE_CURVE($,#205,#207,#100,.T.);
#261=EDGE_CURVE($,#208,#207,#101,.T.);
#262=EDGE_CURVE($,#206,#208,#102,.T.);
#263=EDGE_CURVE($,#207,#209,#103,.T.);
#264=EDGE_CURVE($,#210,#209,#104,.T.);
#265=EDGE_CURVE($,#208,#210,#105,.T.);
#266=EDGE_CURVE($,#209,#211,#106,.T.);
#267=EDGE_CURVE($,#212,#211,#107,.T.);
#268=EDGE_CURVE($,#210,#212,#108,.T.);
#269=EDGE_CURVE($,#211,#213,#109,.T.);
#270=EDGE_CURVE($,#214,#213,#110,.T.);
#271=EDGE_CURVE($,#212,#214,#111,.T.);
#272=EDGE_CURVE($,#213,#215,#112,.T.);
#273=EDGE_CURVE($,#216,#215,#113,.T.);
#274=EDGE_CURVE($,#214,#216,#114,.T.);
#275=EDGE_CURVE($,#215,#177,#115,.T.);
#276=EDGE_CURVE($,#216,#180,#116,.T.);
#277=ORIENTED_EDGE($,*,*,#217,.T.);
#278=ORIENTED_EDGE($,*,*,#218,.F.);
#279=ORIENTED_EDGE($,*,*,#219,.F.);
#280=ORIENTED_EDGE($,*,*,#220,.T.);
#281=ORIENTED_EDGE($,*,*,#221,.T.);
#282=ORIENTED_EDGE($,*,*,#222,.F.);
#283=ORIENTED_EDGE($,*,*,#223,.F.);
#284=ORIENTED_EDGE($,*,*,#218,.T.);
#285=ORIENTED_EDGE($,*,*,#224,.T.);
#286=ORIENTED_EDGE($,*,*,#225,.F.);
#287=ORIENTED_EDGE($,*,*,#226,.F.);
#288=ORIENTED_EDGE($,*,*,#222,.T.);
#289=ORIENTED_EDGE($,*,*,#227,.T.);
#290=ORIENTED_EDGE($,*,*,#228,.F.);
#291=ORIENTED_EDGE($,*,*,#229,.F.);
#292=ORIENTED_EDGE($,*,*,#225,.T.);
#293=ORIENTED_EDGE($,*,*,#230,.T.);
#294=ORIENTED_EDGE($,*,*,#231,.F.);
#295=ORIENTED_EDGE($,*,*,#232,.F.);
#296=ORIENTED_EDGE($,*,*,#228,.T.);
#297=ORIENTED_EDGE($,*,*,#233,.T.);
#298=ORIENTED_EDGE($,*,*,#234,.F.);
#299=ORIENTED_EDGE($,*,*,#235,.F.);
#300=ORIENTED_EDGE($,*,*,#231,.T.);
#301=ORIENTED_EDGE($,*,*,#236,.T.);
#302=ORIENTED_EDGE($,*,*,#237,.F.);
#303=ORIENTED_EDGE($,*,*,#238,.F.);
#304=ORIENTED_EDGE($,*,*,#234,.T.);
#305=ORIENTED_EDGE($,*,*,#239,.T.);
#306=ORIENTED_EDGE($,*,*,#240,.F.);
#307=ORIENTED_EDGE($,*,*,#241,.F.);
#308=ORIENTED_EDGE($,*,*,#237,.T.);
#309=ORIENTED_EDGE($,*,*,#242,.T.);
#310=ORIENTED_EDGE($,*,*,#243,.F.);
#311=ORIENTED_EDGE($,*,*,#244,.F.);
#312=ORIENTED_EDGE($,*,*,#240,.T.);
#313=ORIENTED_EDGE($,*,*,#245,.T.);
#314=ORIENTED_EDGE($,*,*,#246,.F.);
#315=ORIENTED_EDGE($,*,*,#247,.F.);
#316=ORIENTED_EDGE($,*,*,#243,.T.);
#317=ORIENTED_EDGE($,*,*,#248,.T.);
#318=ORIENTED_EDGE($,*,*,#249,.F.);
#319=ORIENTED_EDGE($,*,*,#250,.F.);
#320=ORIENTED_EDGE($,*,*,#246,.T.);
#321=ORIENTED_EDGE($,*,*,#251,.T.);
#322=ORIENTED_EDGE($,*,*,#252,.F.);
#323=ORIENTED_EDGE($,*,*,#253,.F.);
#324=ORIENTED_EDGE($,*,*,#249,.T.);
#325=ORIENTED_EDGE($,*,*,#254,.T.);
#326=ORIENTED_EDGE($,*,*,#255,.F.);
#327=ORIENTED_EDGE($,*,*,#256,.F.);
#328=ORIENTED_EDGE($,*,*,#252,.T.);
#329=ORIENTED_EDGE($,*,*,#257,.T.);
#330=ORIENTED_EDGE($,*,*,#258,.F.);
#331=ORIENTED_EDGE($,*,*,#259,.F.);
#332=ORIENTED_EDGE($,*,*,#255,.T.);
#333=ORIENTED_EDGE($,*,*,#260,.T.);
#334=ORIENTED_EDGE($,*,*,#261,.F.);
#335=ORIENTED_EDGE($,*,*,#262,.F.);
#336=ORIENTED_EDGE($,*,*,#258,.T.);
#337=ORIENTED_EDGE($,*,*,#263,.T.);
#338=ORIENTED_EDGE($,*,*,#264,.F.);
#339=ORIENTED_EDGE($,*,*,#265,.F.);
#340=ORIENTED_EDGE($,*,*,#261,.T.);
#341=ORIENTED_EDGE($,*,*,#266,.T.);
#342=ORIENTED_EDGE($,*,*,#267,.F.);
#343=ORIENTED_EDGE($,*,*,#268,.F.);
#344=ORIENTED_EDGE($,*,*,#264,.T.);
#345=ORIENTED_EDGE($,*,*,#269,.T.);
#346=ORIENTED_EDGE($,*,*,#270,.F.);
#347=ORIENTED_EDGE($,*,*,#271,.F.);
#348=ORIENTED_EDGE($,*,*,#267,.T.);
#349=ORIENTED_EDGE($,*,*,#272,.T.);
#350=ORIENTED_EDGE($,*,*,#273,.F.);
#351=ORIENTED_EDGE($,*,*,#274,.F.);
#352=ORIENTED_EDGE($,*,*,#270,.T.);
#353=ORIENTED_EDGE($,*,*,#275,.T.);
#354=ORIENTED_EDGE($,*,*,#220,.F.);
#355=ORIENTED_EDGE($,*,*,#276,.F.);
#356=ORIENTED_EDGE($,*,*,#273,.T.);
#357=ORIENTED_EDGE($,*,*,#248,.F.);
#358=ORIENTED_EDGE($,*,*,#245,.F.);
#359=ORIENTED_EDGE($,*,*,#242,.F.);
#360=ORIENTED_EDGE($,*,*,#239,.F.);
#361=ORIENTED_EDGE($,*,*,#236,.F.);
#362=ORIENTED_EDGE($,*,*,#233,.F.);
#363=ORIENTED_EDGE($,*,*,#230,.F.);
#364=ORIENTED_EDGE($,*,*,#227,.F.);
#365=ORIENTED_EDGE($,*,*,#224,.F.);
#366=ORIENTED_EDGE($,*,*,#221,.F.);
#367=ORIENTED_EDGE($,*,*,#217,.F.);
#368=ORIENTED_EDGE($,*,*,#275,.F.);
#369=ORIENTED_EDGE($,*,*,#272,.F.);
#370=ORIENTED_EDGE($,*,*,#269,.F.);
#371=ORIENTED_EDGE($,*,*,#266,.F.);
#372=ORIENTED_EDGE($,*,*,#263,.F.);
#373=ORIENTED_EDGE($,*,*,#260,.F.);
#374=ORIENTED_EDGE($,*,*,#257,.F.);
#375=ORIENTED_EDGE($,*,*,#254,.F.);
#376=ORIENTED_EDGE($,*,*,#251,.F.);
#377=ORIENTED_EDGE($,*,*,#250,.T.);
#378=ORIENTED_EDGE($,*,*,#253,.T.);
#379=ORIENTED_EDGE($,*,*,#256,.T.);
#380=ORIENTED_EDGE($,*,*,#259,.T.);
#381=ORIENTED_EDGE($,*,*,#262,.T.);
#382=ORIENTED_EDGE($,*,*,#265,.T.);
#383=ORIENTED_EDGE($,*,*,#268,.T.);
#384=ORIENTED_EDGE($,*,*,#271,.T.);
#385=ORIENTED_EDGE($,*,*,#274,.T.);
#386=ORIENTED_EDGE($,*,*,#276,.T.);
#387=ORIENTED_EDGE($,*,*,#219,.T.);
#388=ORIENTED_EDGE($,*,*,#223,.T.);
#389=ORIENTED_EDGE($,*,*,#226,.T.);
#390=ORIENTED_EDGE($,*,*,#229,.T.);
#391=ORIENTED_EDGE($,*,*,#232,.T.);
#392=ORIENTED_EDGE($,*,*,#235,.T.);
#393=ORIENTED_EDGE($,*,*,#238,.T.);
#394=ORIENTED_EDGE($,*,*,#241,.T.);
#395=ORIENTED_EDGE($,*,*,#244,.T.);
#396=ORIENTED_EDGE($,*,*,#247,.T.);
#397=PLANE($,#444);
#398=PLANE($,#445);
#399=PLANE($,#446);
#400=PLANE($,#447);
#401=PLANE($,#448);
#402=PLANE($,#449);
#403=PLANE($,#450);
#404=PLANE($,#451);
#405=PLANE($,#452);
#406=PLANE($,#453);
#407=PLANE($,#454);
#408=PLANE($,#455);
#409=PLANE($,#456);
#410=PLANE($,#457);
#411=PLANE($,#458);
#412=PLANE($,#459);
#413=PLANE($,#460);
#414=PLANE($,#461);
#415=PLANE($,#462);
#416=PLANE($,#463);
#417=PLANE($,#464);
#418=PLANE($,#465);
#419=ADVANCED_FACE($,(#13),#397,.T.);
#420=ADVANCED_FACE($,(#14),#398,.T.);
#421=ADVANCED_FACE($,(#15),#399,.T.);
#422=ADVANCED_FACE($,(#16),#400,.T.);
#423=ADVANCED_FACE($,(#17),#401,.T.);
#424=ADVANCED_FACE($,(#18),#402,.T.);
#425=ADVANCED_FACE($,(#19),#403,.T.);
#426=ADVANCED_FACE($,(#20),#404,.T.);
#427=ADVANCED_FACE($,(#21),#405,.T.);
#428=ADVANCED_FACE($,(#22),#406,.T.);
#429=ADVANCED_FACE($,(#23),#407,.T.);
#430=ADVANCED_FACE($,(#24),#408,.T.);
#431=ADVANCED_FACE($,(#25),#409,.T.);
#432=ADVANCED_FACE($,(#26),#410,.T.);
#433=ADVANCED_FACE($,(#27),#411,.T.);
#434=ADVANCED_FACE($,(#28),#412,.T.);
#435=ADVANCED_FACE($,(#29),#413,.T.);
#436=ADVANCED_FACE($,(#30),#414,.T.);
#437=ADVANCED_FACE($,(#31),#415,.T.);
#438=ADVANCED_FACE($,(#32),#416,.T.);
#439=ADVANCED_FACE($,(#33),#417,.T.);
#440=ADVANCED_FACE($,(#34),#418,.F.);
#441=CLOSED_SHELL($,(#419,#420,#421,#422,#423,#424,#425,#426,#427,#428,
#429,#430,#431,#432,#433,#434,#435,#436,#437,#438,#439,#440));
#442=MANIFOLD_SOLID_BREP('T\X2\011B\X0\leso1',#441);
#443=AXIS2_PLACEMENT_3D('placement',#572,#466,#467);
#444=AXIS2_PLACEMENT_3D($,#573,#468,#469);
#445=AXIS2_PLACEMENT_3D($,#582,#474,#475);
#446=AXIS2_PLACEMENT_3D($,#588,#479,#480);
#447=AXIS2_PLACEMENT_3D($,#594,#484,#485);
#448=AXIS2_PLACEMENT_3D($,#600,#489,#490);
#449=AXIS2_PLACEMENT_3D($,#606,#494,#495);
#450=AXIS2_PLACEMENT_3D($,#612,#499,#500);
#451=AXIS2_PLACEMENT_3D($,#618,#504,#505);
#452=AXIS2_PLACEMENT_3D($,#624,#509,#510);
#453=AXIS2_PLACEMENT_3D($,#630,#514,#515);
#454=AXIS2_PLACEMENT_3D($,#636,#519,#520);
#455=AXIS2_PLACEMENT_3D($,#642,#524,#525);
#456=AXIS2_PLACEMENT_3D($,#648,#529,#530);
#457=AXIS2_PLACEMENT_3D($,#654,#534,#535);
#458=AXIS2_PLACEMENT_3D($,#660,#539,#540);
#459=AXIS2_PLACEMENT_3D($,#666,#544,#545);
#460=AXIS2_PLACEMENT_3D($,#672,#549,#550);
#461=AXIS2_PLACEMENT_3D($,#678,#554,#555);
#462=AXIS2_PLACEMENT_3D($,#684,#559,#560);
#463=AXIS2_PLACEMENT_3D($,#690,#564,#565);
#464=AXIS2_PLACEMENT_3D($,#693,#568,#569);
#465=AXIS2_PLACEMENT_3D($,#694,#570,#571);
#466=DIRECTION('axis',(0.,0.,1.));
#467=DIRECTION('refdir',(1.,0.,0.));
#468=DIRECTION('center_axis',(0.,-1.,0.));
#469=DIRECTION('ref_axis',(0.,0.,-1.));
#470=DIRECTION($,(-1.,0.,0.));
#471=DIRECTION($,(0.,0.,1.));
#472=DIRECTION($,(-1.,0.,0.));
#473=DIRECTION($,(0.,0.,1.));
#474=DIRECTION('center_axis',(-1.,0.,0.));
#475=DIRECTION('ref_axis',(0.,0.,1.));
#476=DIRECTION($,(0.,1.,0.));
#477=DIRECTION($,(0.,0.,1.));
#478=DIRECTION($,(0.,1.,0.));
#479=DIRECTION('center_axis',(0.,1.,0.));
#480=DIRECTION('ref_axis',(0.,0.,1.));
#481=DIRECTION($,(1.,0.,0.));
#482=DIRECTION($,(0.,0.,1.));
#483=DIRECTION($,(1.,0.,0.));
#484=DIRECTION('center_axis',(-1.,0.,0.));
#485=DIRECTION('ref_axis',(0.,0.,1.));
#486=DIRECTION($,(0.,1.,0.));
#487=DIRECTION($,(0.,0.,1.));
#488=DIRECTION($,(0.,1.,0.));
#489=DIRECTION('center_axis',(1.97081010288489E-016,-1.,0.));
#490=DIRECTION('ref_axis',(0.,0.,-1.));
#491=DIRECTION($,(-1.,-1.97081010288489E-016,0.));
#492=DIRECTION($,(0.,0.,1.));
#493=DIRECTION($,(-1.,-1.97081010288489E-016,0.));
#494=DIRECTION('center_axis',(-1.,0.,0.));
#495=DIRECTION('ref_axis',(0.,0.,1.));
#496=DIRECTION($,(0.,1.,0.));
#497=DIRECTION($,(0.,0.,1.));
#498=DIRECTION($,(0.,1.,0.));
#499=DIRECTION('center_axis',(-1.31387340192326E-016,1.,0.));
#500=DIRECTION('ref_axis',(0.,0.,1.));
#501=DIRECTION($,(1.,1.31387340192326E-016,0.));
#502=DIRECTION($,(0.,0.,1.));
#503=DIRECTION($,(1.,1.31387340192326E-016,0.));
#504=DIRECTION('center_axis',(-1.,-2.58191401075618E-016,0.));
#505=DIRECTION('ref_axis',(0.,0.,1.));
#506=DIRECTION($,(-2.58191401075618E-016,1.,0.));
#507=DIRECTION($,(0.,0.,1.));
#508=DIRECTION($,(-2.58191401075618E-016,1.,0.));
#509=DIRECTION('center_axis',(0.,-1.,0.));
#510=DIRECTION('ref_axis',(0.,0.,-1.));
#511=DIRECTION($,(-1.,0.,0.));
#512=DIRECTION($,(0.,0.,1.));
#513=DIRECTION($,(-1.,0.,0.));
#514=DIRECTION('center_axis',(-1.,0.,0.));
#515=DIRECTION('ref_axis',(0.,0.,1.));
#516=DIRECTION($,(0.,1.,0.));
#517=DIRECTION($,(0.,0.,1.));
#518=DIRECTION($,(0.,1.,0.));
#519=DIRECTION('center_axis',(0.,1.,0.));
#520=DIRECTION('ref_axis',(0.,0.,1.));
#521=DIRECTION($,(1.,0.,0.));
#522=DIRECTION($,(0.,0.,1.));
#523=DIRECTION($,(1.,0.,0.));
#524=DIRECTION('center_axis',(1.,1.94775969232484E-016,0.));
#525=DIRECTION('ref_axis',(0.,0.,-1.));
#526=DIRECTION($,(1.94775969232484E-016,-1.,0.));
#527=DIRECTION($,(0.,0.,1.));
#528=DIRECTION($,(1.94775969232484E-016,-1.,0.));
#529=DIRECTION('center_axis',(0.,-1.,0.));
#530=DIRECTION('ref_axis',(0.,0.,-1.));
#531=DIRECTION($,(-1.,0.,0.));
#532=DIRECTION($,(0.,0.,1.));
#533=DIRECTION($,(-1.,0.,0.));
#534=DIRECTION('center_axis',(1.,0.,0.));
#535=DIRECTION('ref_axis',(0.,0.,-1.));
#536=DIRECTION($,(0.,-1.,0.));
#537=DIRECTION($,(0.,0.,1.));
#538=DIRECTION($,(0.,-1.,0.));
#539=DIRECTION('center_axis',(-1.31387340192326E-016,1.,0.));
#540=DIRECTION('ref_axis',(0.,0.,1.));
#541=DIRECTION($,(1.,1.31387340192326E-016,0.));
#542=DIRECTION($,(0.,0.,1.));
#543=DIRECTION($,(1.,1.31387340192326E-016,0.));
#544=DIRECTION('center_axis',(1.,0.,0.));
#545=DIRECTION('ref_axis',(0.,0.,-1.));
#546=DIRECTION($,(0.,-1.,0.));
#547=DIRECTION($,(0.,0.,1.));
#548=DIRECTION($,(0.,-1.,0.));
#549=DIRECTION('center_axis',(2.62774680384652E-016,-1.,0.));
#550=DIRECTION('ref_axis',(0.,0.,-1.));
#551=DIRECTION($,(-1.,-2.62774680384652E-016,0.));
#552=DIRECTION($,(0.,0.,1.));
#553=DIRECTION($,(-1.,-2.62774680384652E-016,0.));
#554=DIRECTION('center_axis',(1.,1.29095700537809E-016,0.));
#555=DIRECTION('ref_axis',(0.,0.,-1.));
#556=DIRECTION($,(1.29095700537809E-016,-1.,0.));
#557=DIRECTION($,(0.,0.,1.));
#558=DIRECTION($,(1.29095700537809E-016,-1.,0.));
#559=DIRECTION('center_axis',(0.,1.,0.));
#560=DIRECTION('ref_axis',(0.,0.,1.));
#561=DIRECTION($,(1.,0.,0.));
#562=DIRECTION($,(0.,0.,1.));
#563=DIRECTION($,(1.,0.,0.));
#564=DIRECTION('center_axis',(1.,0.,0.));
#565=DIRECTION('ref_axis',(0.,0.,-1.));
#566=DIRECTION($,(0.,-1.,0.));
#567=DIRECTION($,(0.,-1.,0.));
#568=DIRECTION('center_axis',(0.,0.,1.));
#569=DIRECTION('ref_axis',(1.,0.,0.));
#570=DIRECTION('center_axis',(0.,0.,1.));
#571=DIRECTION('ref_axis',(1.,0.,0.));
#572=CARTESIAN_POINT('',(0.,0.,0.));
#573=CARTESIAN_POINT('Origin',(6.7,-12.5,0.));
#574=CARTESIAN_POINT('',(6.7,-12.5,100.));
#575=CARTESIAN_POINT('',(-6.7,-12.5,100.));
#576=CARTESIAN_POINT($,(3.35,-12.5,100.));
#577=CARTESIAN_POINT('',(-6.7,-12.5,0.));
#578=CARTESIAN_POINT($,(-6.7,-12.5,0.));
#579=CARTESIAN_POINT('',(6.7,-12.5,0.));
#580=CARTESIAN_POINT($,(3.35,-12.5,0.));
#581=CARTESIAN_POINT($,(6.7,-12.5,0.));
#582=CARTESIAN_POINT('Origin',(-6.7,-12.5,0.));
#583=CARTESIAN_POINT('',(-6.7,-6.8,100.));
#584=CARTESIAN_POINT($,(-6.7,-6.25,100.));
#585=CARTESIAN_POINT('',(-6.7,-6.8,0.));
#586=CARTESIAN_POINT($,(-6.7,-6.8,0.));
#587=CARTESIAN_POINT($,(-6.7,-6.25,0.));
#588=CARTESIAN_POINT('Origin',(-6.7,-6.8,0.));
#589=CARTESIAN_POINT('',(-4.05,-6.8,100.));
#590=CARTESIAN_POINT($,(-3.35,-6.8,100.));
#591=CARTESIAN_POINT('',(-4.05,-6.8,0.));
#592=CARTESIAN_POINT($,(-4.05,-6.8,0.));
#593=CARTESIAN_POINT($,(-3.35,-6.8,0.));
#594=CARTESIAN_POINT('Origin',(-4.05,-6.8,0.));
#595=CARTESIAN_POINT('',(-4.05,-2.5,100.));
#596=CARTESIAN_POINT($,(-4.05,-3.4,100.));
#597=CARTESIAN_POINT('',(-4.05,-2.5,0.));
#598=CARTESIAN_POINT($,(-4.05,-2.5,0.));
#599=CARTESIAN_POINT($,(-4.05,-3.4,0.));
#600=CARTESIAN_POINT('Origin',(-4.05,-2.5,0.));
#601=CARTESIAN_POINT('',(-12.5,-2.5,100.));
#602=CARTESIAN_POINT($,(-2.025,-2.5,100.));
#603=CARTESIAN_POINT('',(-12.5,-2.5,0.));
#604=CARTESIAN_POINT($,(-12.5,-2.5,0.));
#605=CARTESIAN_POINT($,(-2.025,-2.5,0.));
#606=CARTESIAN_POINT('Origin',(-12.5,-2.5,0.));
#607=CARTESIAN_POINT('',(-12.5,2.5,100.));
#608=CARTESIAN_POINT($,(-12.5,-1.25,100.));
#609=CARTESIAN_POINT('',(-12.5,2.5,0.));
#610=CARTESIAN_POINT($,(-12.5,2.5,0.));
#611=CARTESIAN_POINT($,(-12.5,-1.25,0.));
#612=CARTESIAN_POINT('Origin',(-12.5,2.5,0.));
#613=CARTESIAN_POINT('',(-4.05,2.5,100.));
#614=CARTESIAN_POINT($,(-6.25,2.5,100.));
#615=CARTESIAN_POINT('',(-4.05,2.5,0.));
#616=CARTESIAN_POINT($,(-4.05,2.5,0.));
#617=CARTESIAN_POINT($,(-6.25,2.5,0.));
#618=CARTESIAN_POINT('Origin',(-4.05,2.5,0.));
#619=CARTESIAN_POINT('',(-4.05,6.8,100.));
#620=CARTESIAN_POINT($,(-4.05,1.25,100.));
#621=CARTESIAN_POINT('',(-4.05,6.8,0.));
#622=CARTESIAN_POINT($,(-4.05,6.8,0.));
#623=CARTESIAN_POINT($,(-4.05,1.25,0.));
#624=CARTESIAN_POINT('Origin',(-4.05,6.8,0.));
#625=CARTESIAN_POINT('',(-6.7,6.8,100.));
#626=CARTESIAN_POINT($,(-2.025,6.8,100.));
#627=CARTESIAN_POINT('',(-6.7,6.8,0.));
#628=CARTESIAN_POINT($,(-6.7,6.8,0.));
#629=CARTESIAN_POINT($,(-2.025,6.8,0.));
#630=CARTESIAN_POINT('Origin',(-6.7,6.8,0.));
#631=CARTESIAN_POINT('',(-6.7,12.5,100.));
#632=CARTESIAN_POINT($,(-6.7,3.4,100.));
#633=CARTESIAN_POINT('',(-6.7,12.5,0.));
#634=CARTESIAN_POINT($,(-6.7,12.5,0.));
#635=CARTESIAN_POINT($,(-6.7,3.4,0.));
#636=CARTESIAN_POINT('Origin',(-6.7,12.5,0.));
#637=CARTESIAN_POINT('',(6.7,12.5,100.));
#638=CARTESIAN_POINT($,(-3.35,12.5,100.));
#639=CARTESIAN_POINT('',(6.7,12.5,0.));
#640=CARTESIAN_POINT($,(6.7,12.5,0.));
#641=CARTESIAN_POINT($,(-3.35,12.5,0.));
#642=CARTESIAN_POINT('Origin',(6.7,12.5,0.));
#643=CARTESIAN_POINT('',(6.7,6.8,100.));
#644=CARTESIAN_POINT($,(6.7,6.24999999999999,100.));
#645=CARTESIAN_POINT('',(6.7,6.8,0.));
#646=CARTESIAN_POINT($,(6.7,6.8,0.));
#647=CARTESIAN_POINT($,(6.7,6.24999999999999,0.));
#648=CARTESIAN_POINT('Origin',(6.7,6.8,0.));
#649=CARTESIAN_POINT('',(4.05,6.8,100.));
#650=CARTESIAN_POINT($,(3.35,6.8,100.));
#651=CARTESIAN_POINT('',(4.05,6.8,0.));
#652=CARTESIAN_POINT($,(4.05,6.8,0.));
#653=CARTESIAN_POINT($,(3.35,6.8,0.));
#654=CARTESIAN_POINT('Origin',(4.05,6.8,0.));
#655=CARTESIAN_POINT('',(4.05,2.5,100.));
#656=CARTESIAN_POINT($,(4.05,3.4,100.));
#657=CARTESIAN_POINT('',(4.05,2.5,0.));
#658=CARTESIAN_POINT($,(4.05,2.5,0.));
#659=CARTESIAN_POINT($,(4.05,3.4,0.));
#660=CARTESIAN_POINT('Origin',(4.05,2.5,0.));
#661=CARTESIAN_POINT('',(12.5,2.5,100.));
#662=CARTESIAN_POINT($,(2.025,2.5,100.));
#663=CARTESIAN_POINT('',(12.5,2.5,0.));
#664=CARTESIAN_POINT($,(12.5,2.5,0.));
#665=CARTESIAN_POINT($,(2.025,2.5,0.));
#666=CARTESIAN_POINT('Origin',(12.5,2.5,0.));
#667=CARTESIAN_POINT('',(12.5,-2.5,100.));
#668=CARTESIAN_POINT($,(12.5,1.25,100.));
#669=CARTESIAN_POINT('',(12.5,-2.5,0.));
#670=CARTESIAN_POINT($,(12.5,-2.5,0.));
#671=CARTESIAN_POINT($,(12.5,1.25,0.));
#672=CARTESIAN_POINT('Origin',(12.5,-2.5,0.));
#673=CARTESIAN_POINT('',(4.05,-2.5,100.));
#674=CARTESIAN_POINT($,(6.25,-2.5,100.));
#675=CARTESIAN_POINT('',(4.05,-2.5,0.));
#676=CARTESIAN_POINT($,(4.05,-2.5,0.));
#677=CARTESIAN_POINT($,(6.25,-2.5,0.));
#678=CARTESIAN_POINT('Origin',(4.05,-2.5,0.));
#679=CARTESIAN_POINT('',(4.05,-6.8,100.));
#680=CARTESIAN_POINT($,(4.05,-1.25,100.));
#681=CARTESIAN_POINT('',(4.05,-6.8,0.));
#682=CARTESIAN_POINT($,(4.05,-6.8,0.));
#683=CARTESIAN_POINT($,(4.05,-1.25,0.));
#684=CARTESIAN_POINT('Origin',(4.05,-6.8,0.));
#685=CARTESIAN_POINT('',(6.7,-6.8,100.));
#686=CARTESIAN_POINT($,(2.025,-6.8,100.));
#687=CARTESIAN_POINT('',(6.7,-6.8,0.));
#688=CARTESIAN_POINT($,(6.7,-6.8,0.));
#689=CARTESIAN_POINT($,(2.025,-6.8,0.));
#690=CARTESIAN_POINT('Origin',(6.7,-6.8,0.));
#691=CARTESIAN_POINT($,(6.7,-3.4,100.));
#692=CARTESIAN_POINT($,(6.7,-3.4,0.));
#693=CARTESIAN_POINT('Origin',(0.,-4.44089209850063E-015,100.));
#694=CARTESIAN_POINT('Origin',(0.,-4.44089209850063E-015,0.));
#695=UNCERTAINTY_MEASURE_WITH_UNIT(LENGTH_MEASURE(0.01),#697,
'DISTANCE_ACCURACY_VALUE',
'Maximum model space distance between geometric entities at asserted c
onnectivities');
#696=(
GEOMETRIC_REPRESENTATION_CONTEXT(3)
GLOBAL_UNCERTAINTY_ASSIGNED_CONTEXT((#695))
GLOBAL_UNIT_ASSIGNED_CONTEXT((#697,#700,#698))
REPRESENTATION_CONTEXT('','3D')
);
#697=(
LENGTH_UNIT()
NAMED_UNIT(*)
SI_UNIT(.MILLI.,.METRE.)
);
#698=(
NAMED_UNIT(*)
SI_UNIT($,.STERADIAN.)
SOLID_ANGLE_UNIT()
);
#699=DIMENSIONAL_EXPONENTS(0.,0.,0.,0.,0.,0.,0.);
#700=(
CONVERSION_BASED_UNIT('degree',#702)
NAMED_UNIT(#699)
PLANE_ANGLE_UNIT()
);
#701=(
NAMED_UNIT(*)
PLANE_ANGLE_UNIT()
SI_UNIT($,.RADIAN.)
);
#702=PLANE_ANGLE_MEASURE_WITH_UNIT(PLANE_ANGLE_MEASURE(0.01745329252),#701);
#703=SHAPE_DEFINITION_REPRESENTATION(#704,#705);
#704=PRODUCT_DEFINITION_SHAPE('',$,#707);
#705=SHAPE_REPRESENTATION('',(#443),#696);
#706=DESIGN_CONTEXT('3D Mechanical Parts',#710,'design');
#707=PRODUCT_DEFINITION('-700500-24','-700500-24',#708,#706);
#708=PRODUCT_DEFINITION_FORMATION('',$,#712);
#709=APPLICATION_PROTOCOL_DEFINITION('international standard',
'ap203_configuration_controlled_3d_design_of_mechanical_parts_and_asse
mblies_mim_lf',2004,#710);
#710=APPLICATION_CONTEXT(
'Configuration Controlled 3D Design of Mechanical Parts and Assemblies');
#711=MECHANICAL_CONTEXT('3D Mechanical Parts',#710,'mechanical');
#712=PRODUCT('-700500-24','-700500-24',$,(#711));
#713=PRESENTATION_STYLE_ASSIGNMENT((#714));
#714=SURFACE_STYLE_USAGE(.BOTH.,#715);
#715=SURFACE_SIDE_STYLE($,(#716));
#716=SURFACE_STYLE_FILL_AREA(#717);
#717=FILL_AREA_STYLE($,(#718));
#718=FILL_AREA_STYLE_COLOUR($,#719);
#719=COLOUR_RGB('',0.529411764705882,0.529411764705882,0.529411764705882);
ENDSEC;
END-ISO-10303-21;
