ISO-10303-21;
HEADER;
/* Generated by software containing ST-Developer
 * from STEP Tools, Inc. (www.steptools.com) 
 */

FILE_DESCRIPTION(
/* description */ ('Ochrann\X\FD a t\X2\011B\X0\sn\X\EDc\X\ED profil'),

/* implementation_level */ '2;1');

FILE_NAME(
/* name */ 'C:\\Vault_pracovn\X\ED\\Zak\X\E1zky\\Kal\X\E1b_pokus\\7000
02.stp',
/* time_stamp */ '2014-08-19T08:55:07+02:00',
/* author */ ('jank'),
/* organization */ (''),
/* preprocessor_version */ 'ST-DEVELOPER v15.2',
/* originating_system */ 'Autodesk Inventor 2014',
/* authorisation */ '');

FILE_SCHEMA (('CONFIG_CONTROL_DESIGN'));
ENDSEC;

DATA;
#10=SHAPE_REPRESENTATION_RELATIONSHIP('SRR','None',#651,#11);
#11=ADVANCED_BREP_SHAPE_REPRESENTATION($,(#396),#642);
#12=STYLED_ITEM($,(#659),#396);
#13=FACE_BOUND($,#69,.T.);
#14=FACE_BOUND($,#70,.T.);
#15=FACE_BOUND($,#71,.T.);
#16=FACE_BOUND($,#72,.T.);
#17=PLANE($,#401);
#18=PLANE($,#402);
#19=PLANE($,#403);
#20=PLANE($,#404);
#21=PLANE($,#408);
#22=PLANE($,#412);
#23=PLANE($,#416);
#24=PLANE($,#417);
#25=PLANE($,#418);
#26=PLANE($,#419);
#27=PLANE($,#420);
#28=PLANE($,#421);
#29=PLANE($,#422);
#30=PLANE($,#423);
#31=PLANE($,#424);
#32=PLANE($,#425);
#33=FACE_OUTER_BOUND($,#51,.T.);
#34=FACE_OUTER_BOUND($,#52,.T.);
#35=FACE_OUTER_BOUND($,#53,.T.);
#36=FACE_OUTER_BOUND($,#54,.T.);
#37=FACE_OUTER_BOUND($,#55,.T.);
#38=FACE_OUTER_BOUND($,#56,.T.);
#39=FACE_OUTER_BOUND($,#57,.T.);
#40=FACE_OUTER_BOUND($,#58,.T.);
#41=FACE_OUTER_BOUND($,#59,.T.);
#42=FACE_OUTER_BOUND($,#60,.T.);
#43=FACE_OUTER_BOUND($,#61,.T.);
#44=FACE_OUTER_BOUND($,#62,.T.);
#45=FACE_OUTER_BOUND($,#63,.T.);
#46=FACE_OUTER_BOUND($,#64,.T.);
#47=FACE_OUTER_BOUND($,#65,.T.);
#48=FACE_OUTER_BOUND($,#66,.T.);
#49=FACE_OUTER_BOUND($,#67,.T.);
#50=FACE_OUTER_BOUND($,#68,.T.);
#51=EDGE_LOOP($,(#263,#264,#265,#266));
#52=EDGE_LOOP($,(#267,#268,#269,#270));
#53=EDGE_LOOP($,(#271,#272,#273,#274));
#54=EDGE_LOOP($,(#275,#276,#277,#278));
#55=EDGE_LOOP($,(#279,#280,#281,#282));
#56=EDGE_LOOP($,(#283,#284,#285,#286));
#57=EDGE_LOOP($,(#287,#288,#289,#290));
#58=EDGE_LOOP($,(#291,#292,#293,#294));
#59=EDGE_LOOP($,(#295,#296,#297,#298));
#60=EDGE_LOOP($,(#299,#300,#301,#302));
#61=EDGE_LOOP($,(#303,#304,#305,#306));
#62=EDGE_LOOP($,(#307,#308,#309,#310));
#63=EDGE_LOOP($,(#311,#312,#313,#314));
#64=EDGE_LOOP($,(#315,#316,#317,#318));
#65=EDGE_LOOP($,(#319,#320,#321,#322));
#66=EDGE_LOOP($,(#323,#324,#325,#326));
#67=EDGE_LOOP($,(#327,#328,#329,#330));
#68=EDGE_LOOP($,(#331,#332,#333,#334));
#69=EDGE_LOOP($,(#335,#336,#337,#338));
#70=EDGE_LOOP($,(#339,#340,#341,#342,#343,#344,#345,#346,#347,#348,#349,
#350,#351,#352));
#71=EDGE_LOOP($,(#353,#354,#355,#356));
#72=EDGE_LOOP($,(#357,#358,#359,#360,#361,#362,#363,#364,#365,#366,#367,
#368,#369,#370));
#73=LINE($,#536,#119);
#74=LINE($,#539,#120);
#75=LINE($,#542,#121);
#76=LINE($,#544,#122);
#77=LINE($,#545,#123);
#78=LINE($,#549,#124);
#79=LINE($,#551,#125);
#80=LINE($,#553,#126);
#81=LINE($,#554,#127);
#82=LINE($,#557,#128);
#83=LINE($,#559,#129);
#84=LINE($,#560,#130);
#85=LINE($,#563,#131);
#86=LINE($,#565,#132);
#87=LINE($,#566,#133);
#88=LINE($,#571,#134);
#89=LINE($,#575,#135);
#90=LINE($,#577,#136);
#91=LINE($,#578,#137);
#92=LINE($,#583,#138);
#93=LINE($,#587,#139);
#94=LINE($,#589,#140);
#95=LINE($,#590,#141);
#96=LINE($,#595,#142);
#97=LINE($,#598,#143);
#98=LINE($,#599,#144);
#99=LINE($,#602,#145);
#100=LINE($,#604,#146);
#101=LINE($,#605,#147);
#102=LINE($,#608,#148);
#103=LINE($,#610,#149);
#104=LINE($,#611,#150);
#105=LINE($,#614,#151);
#106=LINE($,#616,#152);
#107=LINE($,#617,#153);
#108=LINE($,#620,#154);
#109=LINE($,#622,#155);
#110=LINE($,#623,#156);
#111=LINE($,#626,#157);
#112=LINE($,#628,#158);
#113=LINE($,#629,#159);
#114=LINE($,#632,#160);
#115=LINE($,#634,#161);
#116=LINE($,#635,#162);
#117=LINE($,#637,#163);
#118=LINE($,#638,#164);
#119=VECTOR($,#432,100.);
#120=VECTOR($,#435,100.);
#121=VECTOR($,#438,3.5);
#122=VECTOR($,#439,100.);
#123=VECTOR($,#440,3.5);
#124=VECTOR($,#443,4.5);
#125=VECTOR($,#444,100.);
#126=VECTOR($,#445,4.5);
#127=VECTOR($,#446,100.);
#128=VECTOR($,#449,15.850004);
#129=VECTOR($,#450,100.);
#130=VECTOR($,#451,15.850004);
#131=VECTOR($,#454,1.);
#132=VECTOR($,#455,100.);
#133=VECTOR($,#456,1.);
#134=VECTOR($,#461,100.);
#135=VECTOR($,#466,36.);
#136=VECTOR($,#467,100.);
#137=VECTOR($,#468,36.);
#138=VECTOR($,#473,100.);
#139=VECTOR($,#478,1.);
#140=VECTOR($,#479,100.);
#141=VECTOR($,#480,1.);
#142=VECTOR($,#485,100.);
#143=VECTOR($,#490,3.5);
#144=VECTOR($,#491,3.5);
#145=VECTOR($,#494,15.850004);
#146=VECTOR($,#495,100.);
#147=VECTOR($,#496,15.850004);
#148=VECTOR($,#499,4.5);
#149=VECTOR($,#500,100.);
#150=VECTOR($,#501,4.5);
#151=VECTOR($,#504,0.850004000000001);
#152=VECTOR($,#505,100.);
#153=VECTOR($,#506,0.850004000000001);
#154=VECTOR($,#509,5.84024138968553);
#155=VECTOR($,#510,100.);
#156=VECTOR($,#511,5.84024138968553);
#157=VECTOR($,#514,6.071428);
#158=VECTOR($,#515,100.);
#159=VECTOR($,#516,6.071428);
#160=VECTOR($,#519,5.84024138968553);
#161=VECTOR($,#520,100.);
#162=VECTOR($,#521,5.84024138968553);
#163=VECTOR($,#524,0.850004000000001);
#164=VECTOR($,#525,0.850004000000001);
#165=CIRCLE($,#399,2.25);
#166=CIRCLE($,#400,2.25);
#167=CIRCLE($,#406,2.);
#168=CIRCLE($,#407,2.);
#169=CIRCLE($,#410,2.);
#170=CIRCLE($,#411,2.);
#171=CIRCLE($,#414,2.25);
#172=CIRCLE($,#415,2.25);
#173=VERTEX_POINT($,#532);
#174=VERTEX_POINT($,#533);
#175=VERTEX_POINT($,#535);
#176=VERTEX_POINT($,#537);
#177=VERTEX_POINT($,#541);
#178=VERTEX_POINT($,#543);
#179=VERTEX_POINT($,#547);
#180=VERTEX_POINT($,#548);
#181=VERTEX_POINT($,#550);
#182=VERTEX_POINT($,#552);
#183=VERTEX_POINT($,#556);
#184=VERTEX_POINT($,#558);
#185=VERTEX_POINT($,#562);
#186=VERTEX_POINT($,#564);
#187=VERTEX_POINT($,#568);
#188=VERTEX_POINT($,#570);
#189=VERTEX_POINT($,#574);
#190=VERTEX_POINT($,#576);
#191=VERTEX_POINT($,#580);
#192=VERTEX_POINT($,#582);
#193=VERTEX_POINT($,#586);
#194=VERTEX_POINT($,#588);
#195=VERTEX_POINT($,#592);
#196=VERTEX_POINT($,#594);
#197=VERTEX_POINT($,#601);
#198=VERTEX_POINT($,#603);
#199=VERTEX_POINT($,#607);
#200=VERTEX_POINT($,#609);
#201=VERTEX_POINT($,#613);
#202=VERTEX_POINT($,#615);
#203=VERTEX_POINT($,#619);
#204=VERTEX_POINT($,#621);
#205=VERTEX_POINT($,#625);
#206=VERTEX_POINT($,#627);
#207=VERTEX_POINT($,#631);
#208=VERTEX_POINT($,#633);
#209=EDGE_CURVE($,#173,#174,#165,.T.);
#210=EDGE_CURVE($,#175,#174,#73,.T.);
#211=EDGE_CURVE($,#176,#175,#166,.T.);
#212=EDGE_CURVE($,#176,#173,#74,.T.);
#213=EDGE_CURVE($,#174,#177,#75,.T.);
#214=EDGE_CURVE($,#178,#177,#76,.T.);
#215=EDGE_CURVE($,#175,#178,#77,.T.);
#216=EDGE_CURVE($,#179,#180,#78,.T.);
#217=EDGE_CURVE($,#181,#180,#79,.T.);
#218=EDGE_CURVE($,#182,#181,#80,.T.);
#219=EDGE_CURVE($,#182,#179,#81,.T.);
#220=EDGE_CURVE($,#180,#183,#82,.T.);
#221=EDGE_CURVE($,#184,#183,#83,.T.);
#222=EDGE_CURVE($,#181,#184,#84,.T.);
#223=EDGE_CURVE($,#183,#185,#85,.T.);
#224=EDGE_CURVE($,#186,#185,#86,.T.);
#225=EDGE_CURVE($,#184,#186,#87,.T.);
#226=EDGE_CURVE($,#185,#187,#167,.T.);
#227=EDGE_CURVE($,#188,#187,#88,.T.);
#228=EDGE_CURVE($,#186,#188,#168,.T.);
#229=EDGE_CURVE($,#187,#189,#89,.T.);
#230=EDGE_CURVE($,#190,#189,#90,.T.);
#231=EDGE_CURVE($,#188,#190,#91,.T.);
#232=EDGE_CURVE($,#189,#191,#169,.T.);
#233=EDGE_CURVE($,#192,#191,#92,.T.);
#234=EDGE_CURVE($,#190,#192,#170,.T.);
#235=EDGE_CURVE($,#191,#193,#93,.T.);
#236=EDGE_CURVE($,#194,#193,#94,.T.);
#237=EDGE_CURVE($,#192,#194,#95,.T.);
#238=EDGE_CURVE($,#177,#195,#171,.T.);
#239=EDGE_CURVE($,#196,#195,#96,.T.);
#240=EDGE_CURVE($,#178,#196,#172,.T.);
#241=EDGE_CURVE($,#195,#173,#97,.T.);
#242=EDGE_CURVE($,#196,#176,#98,.T.);
#243=EDGE_CURVE($,#193,#197,#99,.T.);
#244=EDGE_CURVE($,#198,#197,#100,.T.);
#245=EDGE_CURVE($,#194,#198,#101,.T.);
#246=EDGE_CURVE($,#197,#199,#102,.T.);
#247=EDGE_CURVE($,#200,#199,#103,.T.);
#248=EDGE_CURVE($,#198,#200,#104,.T.);
#249=EDGE_CURVE($,#199,#201,#105,.T.);
#250=EDGE_CURVE($,#202,#201,#106,.T.);
#251=EDGE_CURVE($,#200,#202,#107,.T.);
#252=EDGE_CURVE($,#201,#203,#108,.T.);
#253=EDGE_CURVE($,#204,#203,#109,.T.);
#254=EDGE_CURVE($,#202,#204,#110,.T.);
#255=EDGE_CURVE($,#203,#205,#111,.T.);
#256=EDGE_CURVE($,#206,#205,#112,.T.);
#257=EDGE_CURVE($,#204,#206,#113,.T.);
#258=EDGE_CURVE($,#205,#207,#114,.T.);
#259=EDGE_CURVE($,#208,#207,#115,.T.);
#260=EDGE_CURVE($,#206,#208,#116,.T.);
#261=EDGE_CURVE($,#207,#179,#117,.T.);
#262=EDGE_CURVE($,#208,#182,#118,.T.);
#263=ORIENTED_EDGE($,*,*,#209,.T.);
#264=ORIENTED_EDGE($,*,*,#210,.F.);
#265=ORIENTED_EDGE($,*,*,#211,.F.);
#266=ORIENTED_EDGE($,*,*,#212,.T.);
#267=ORIENTED_EDGE($,*,*,#213,.T.);
#268=ORIENTED_EDGE($,*,*,#214,.F.);
#269=ORIENTED_EDGE($,*,*,#215,.F.);
#270=ORIENTED_EDGE($,*,*,#210,.T.);
#271=ORIENTED_EDGE($,*,*,#216,.T.);
#272=ORIENTED_EDGE($,*,*,#217,.F.);
#273=ORIENTED_EDGE($,*,*,#218,.F.);
#274=ORIENTED_EDGE($,*,*,#219,.T.);
#275=ORIENTED_EDGE($,*,*,#220,.T.);
#276=ORIENTED_EDGE($,*,*,#221,.F.);
#277=ORIENTED_EDGE($,*,*,#222,.F.);
#278=ORIENTED_EDGE($,*,*,#217,.T.);
#279=ORIENTED_EDGE($,*,*,#223,.T.);
#280=ORIENTED_EDGE($,*,*,#224,.F.);
#281=ORIENTED_EDGE($,*,*,#225,.F.);
#282=ORIENTED_EDGE($,*,*,#221,.T.);
#283=ORIENTED_EDGE($,*,*,#226,.T.);
#284=ORIENTED_EDGE($,*,*,#227,.F.);
#285=ORIENTED_EDGE($,*,*,#228,.F.);
#286=ORIENTED_EDGE($,*,*,#224,.T.);
#287=ORIENTED_EDGE($,*,*,#229,.T.);
#288=ORIENTED_EDGE($,*,*,#230,.F.);
#289=ORIENTED_EDGE($,*,*,#231,.F.);
#290=ORIENTED_EDGE($,*,*,#227,.T.);
#291=ORIENTED_EDGE($,*,*,#232,.T.);
#292=ORIENTED_EDGE($,*,*,#233,.F.);
#293=ORIENTED_EDGE($,*,*,#234,.F.);
#294=ORIENTED_EDGE($,*,*,#230,.T.);
#295=ORIENTED_EDGE($,*,*,#235,.T.);
#296=ORIENTED_EDGE($,*,*,#236,.F.);
#297=ORIENTED_EDGE($,*,*,#237,.F.);
#298=ORIENTED_EDGE($,*,*,#233,.T.);
#299=ORIENTED_EDGE($,*,*,#238,.T.);
#300=ORIENTED_EDGE($,*,*,#239,.F.);
#301=ORIENTED_EDGE($,*,*,#240,.F.);
#302=ORIENTED_EDGE($,*,*,#214,.T.);
#303=ORIENTED_EDGE($,*,*,#241,.T.);
#304=ORIENTED_EDGE($,*,*,#212,.F.);
#305=ORIENTED_EDGE($,*,*,#242,.F.);
#306=ORIENTED_EDGE($,*,*,#239,.T.);
#307=ORIENTED_EDGE($,*,*,#243,.T.);
#308=ORIENTED_EDGE($,*,*,#244,.F.);
#309=ORIENTED_EDGE($,*,*,#245,.F.);
#310=ORIENTED_EDGE($,*,*,#236,.T.);
#311=ORIENTED_EDGE($,*,*,#246,.T.);
#312=ORIENTED_EDGE($,*,*,#247,.F.);
#313=ORIENTED_EDGE($,*,*,#248,.F.);
#314=ORIENTED_EDGE($,*,*,#244,.T.);
#315=ORIENTED_EDGE($,*,*,#249,.T.);
#316=ORIENTED_EDGE($,*,*,#250,.F.);
#317=ORIENTED_EDGE($,*,*,#251,.F.);
#318=ORIENTED_EDGE($,*,*,#247,.T.);
#319=ORIENTED_EDGE($,*,*,#252,.T.);
#320=ORIENTED_EDGE($,*,*,#253,.F.);
#321=ORIENTED_EDGE($,*,*,#254,.F.);
#322=ORIENTED_EDGE($,*,*,#250,.T.);
#323=ORIENTED_EDGE($,*,*,#255,.T.);
#324=ORIENTED_EDGE($,*,*,#256,.F.);
#325=ORIENTED_EDGE($,*,*,#257,.F.);
#326=ORIENTED_EDGE($,*,*,#253,.T.);
#327=ORIENTED_EDGE($,*,*,#258,.T.);
#328=ORIENTED_EDGE($,*,*,#259,.F.);
#329=ORIENTED_EDGE($,*,*,#260,.F.);
#330=ORIENTED_EDGE($,*,*,#256,.T.);
#331=ORIENTED_EDGE($,*,*,#261,.T.);
#332=ORIENTED_EDGE($,*,*,#219,.F.);
#333=ORIENTED_EDGE($,*,*,#262,.F.);
#334=ORIENTED_EDGE($,*,*,#259,.T.);
#335=ORIENTED_EDGE($,*,*,#238,.F.);
#336=ORIENTED_EDGE($,*,*,#213,.F.);
#337=ORIENTED_EDGE($,*,*,#209,.F.);
#338=ORIENTED_EDGE($,*,*,#241,.F.);
#339=ORIENTED_EDGE($,*,*,#243,.F.);
#340=ORIENTED_EDGE($,*,*,#235,.F.);
#341=ORIENTED_EDGE($,*,*,#232,.F.);
#342=ORIENTED_EDGE($,*,*,#229,.F.);
#343=ORIENTED_EDGE($,*,*,#226,.F.);
#344=ORIENTED_EDGE($,*,*,#223,.F.);
#345=ORIENTED_EDGE($,*,*,#220,.F.);
#346=ORIENTED_EDGE($,*,*,#216,.F.);
#347=ORIENTED_EDGE($,*,*,#261,.F.);
#348=ORIENTED_EDGE($,*,*,#258,.F.);
#349=ORIENTED_EDGE($,*,*,#255,.F.);
#350=ORIENTED_EDGE($,*,*,#252,.F.);
#351=ORIENTED_EDGE($,*,*,#249,.F.);
#352=ORIENTED_EDGE($,*,*,#246,.F.);
#353=ORIENTED_EDGE($,*,*,#240,.T.);
#354=ORIENTED_EDGE($,*,*,#242,.T.);
#355=ORIENTED_EDGE($,*,*,#211,.T.);
#356=ORIENTED_EDGE($,*,*,#215,.T.);
#357=ORIENTED_EDGE($,*,*,#245,.T.);
#358=ORIENTED_EDGE($,*,*,#248,.T.);
#359=ORIENTED_EDGE($,*,*,#251,.T.);
#360=ORIENTED_EDGE($,*,*,#254,.T.);
#361=ORIENTED_EDGE($,*,*,#257,.T.);
#362=ORIENTED_EDGE($,*,*,#260,.T.);
#363=ORIENTED_EDGE($,*,*,#262,.T.);
#364=ORIENTED_EDGE($,*,*,#218,.T.);
#365=ORIENTED_EDGE($,*,*,#222,.T.);
#366=ORIENTED_EDGE($,*,*,#225,.T.);
#367=ORIENTED_EDGE($,*,*,#228,.T.);
#368=ORIENTED_EDGE($,*,*,#231,.T.);
#369=ORIENTED_EDGE($,*,*,#234,.T.);
#370=ORIENTED_EDGE($,*,*,#237,.T.);
#371=CYLINDRICAL_SURFACE($,#398,2.25);
#372=CYLINDRICAL_SURFACE($,#405,2.);
#373=CYLINDRICAL_SURFACE($,#409,2.);
#374=CYLINDRICAL_SURFACE($,#413,2.25);
#375=ADVANCED_FACE($,(#33),#371,.F.);
#376=ADVANCED_FACE($,(#34),#17,.F.);
#377=ADVANCED_FACE($,(#35),#18,.T.);
#378=ADVANCED_FACE($,(#36),#19,.T.);
#379=ADVANCED_FACE($,(#37),#20,.T.);
#380=ADVANCED_FACE($,(#38),#372,.T.);
#381=ADVANCED_FACE($,(#39),#21,.T.);
#382=ADVANCED_FACE($,(#40),#373,.T.);
#383=ADVANCED_FACE($,(#41),#22,.T.);
#384=ADVANCED_FACE($,(#42),#374,.F.);
#385=ADVANCED_FACE($,(#43),#23,.F.);
#386=ADVANCED_FACE($,(#44),#24,.T.);
#387=ADVANCED_FACE($,(#45),#25,.T.);
#388=ADVANCED_FACE($,(#46),#26,.T.);
#389=ADVANCED_FACE($,(#47),#27,.T.);
#390=ADVANCED_FACE($,(#48),#28,.T.);
#391=ADVANCED_FACE($,(#49),#29,.T.);
#392=ADVANCED_FACE($,(#50),#30,.T.);
#393=ADVANCED_FACE($,(#13,#14),#31,.T.);
#394=ADVANCED_FACE($,(#15,#16),#32,.F.);
#395=CLOSED_SHELL($,(#375,#376,#377,#378,#379,#380,#381,#382,#383,#384,
#385,#386,#387,#388,#389,#390,#391,#392,#393,#394));
#396=MANIFOLD_SOLID_BREP('T\X2\011B\X0\leso1',#395);
#397=AXIS2_PLACEMENT_3D('placement',#530,#426,#427);
#398=AXIS2_PLACEMENT_3D($,#531,#428,#429);
#399=AXIS2_PLACEMENT_3D($,#534,#430,#431);
#400=AXIS2_PLACEMENT_3D($,#538,#433,#434);
#401=AXIS2_PLACEMENT_3D($,#540,#436,#437);
#402=AXIS2_PLACEMENT_3D($,#546,#441,#442);
#403=AXIS2_PLACEMENT_3D($,#555,#447,#448);
#404=AXIS2_PLACEMENT_3D($,#561,#452,#453);
#405=AXIS2_PLACEMENT_3D($,#567,#457,#458);
#406=AXIS2_PLACEMENT_3D($,#569,#459,#460);
#407=AXIS2_PLACEMENT_3D($,#572,#462,#463);
#408=AXIS2_PLACEMENT_3D($,#573,#464,#465);
#409=AXIS2_PLACEMENT_3D($,#579,#469,#470);
#410=AXIS2_PLACEMENT_3D($,#581,#471,#472);
#411=AXIS2_PLACEMENT_3D($,#584,#474,#475);
#412=AXIS2_PLACEMENT_3D($,#585,#476,#477);
#413=AXIS2_PLACEMENT_3D($,#591,#481,#482);
#414=AXIS2_PLACEMENT_3D($,#593,#483,#484);
#415=AXIS2_PLACEMENT_3D($,#596,#486,#487);
#416=AXIS2_PLACEMENT_3D($,#597,#488,#489);
#417=AXIS2_PLACEMENT_3D($,#600,#492,#493);
#418=AXIS2_PLACEMENT_3D($,#606,#497,#498);
#419=AXIS2_PLACEMENT_3D($,#612,#502,#503);
#420=AXIS2_PLACEMENT_3D($,#618,#507,#508);
#421=AXIS2_PLACEMENT_3D($,#624,#512,#513);
#422=AXIS2_PLACEMENT_3D($,#630,#517,#518);
#423=AXIS2_PLACEMENT_3D($,#636,#522,#523);
#424=AXIS2_PLACEMENT_3D($,#639,#526,#527);
#425=AXIS2_PLACEMENT_3D($,#640,#528,#529);
#426=DIRECTION('axis',(0.,0.,1.));
#427=DIRECTION('refdir',(1.,0.,0.));
#428=DIRECTION('center_axis',(0.,0.,1.));
#429=DIRECTION('ref_axis',(-1.,0.,0.));
#430=DIRECTION('center_axis',(0.,0.,1.));
#431=DIRECTION('ref_axis',(-1.,0.,0.));
#432=DIRECTION($,(0.,0.,1.));
#433=DIRECTION('center_axis',(0.,0.,1.));
#434=DIRECTION('ref_axis',(-1.,0.,0.));
#435=DIRECTION($,(0.,0.,1.));
#436=DIRECTION('center_axis',(-1.,0.,0.));
#437=DIRECTION('ref_axis',(0.,0.,1.));
#438=DIRECTION($,(0.,-1.,0.));
#439=DIRECTION($,(0.,0.,1.));
#440=DIRECTION($,(0.,-1.,0.));
#441=DIRECTION('center_axis',(-1.,0.,0.));
#442=DIRECTION('ref_axis',(0.,0.,1.));
#443=DIRECTION($,(0.,1.,0.));
#444=DIRECTION($,(0.,0.,1.));
#445=DIRECTION($,(0.,1.,0.));
#446=DIRECTION($,(0.,0.,1.));
#447=DIRECTION('center_axis',(0.,-1.,0.));
#448=DIRECTION('ref_axis',(0.,0.,-1.));
#449=DIRECTION($,(-1.,0.,0.));
#450=DIRECTION($,(0.,0.,1.));
#451=DIRECTION($,(-1.,0.,0.));
#452=DIRECTION('center_axis',(-1.,0.,0.));
#453=DIRECTION('ref_axis',(0.,0.,1.));
#454=DIRECTION($,(0.,1.,0.));
#455=DIRECTION($,(0.,0.,1.));
#456=DIRECTION($,(0.,1.,0.));
#457=DIRECTION('center_axis',(0.,0.,1.));
#458=DIRECTION('ref_axis',(0.,-1.,0.));
#459=DIRECTION('center_axis',(0.,0.,-1.));
#460=DIRECTION('ref_axis',(0.,-1.,0.));
#461=DIRECTION($,(0.,0.,1.));
#462=DIRECTION('center_axis',(0.,0.,-1.));
#463=DIRECTION('ref_axis',(0.,-1.,0.));
#464=DIRECTION('center_axis',(0.,1.,0.));
#465=DIRECTION('ref_axis',(0.,0.,1.));
#466=DIRECTION($,(1.,0.,0.));
#467=DIRECTION($,(0.,0.,1.));
#468=DIRECTION($,(1.,0.,0.));
#469=DIRECTION('center_axis',(0.,0.,1.));
#470=DIRECTION('ref_axis',(-1.,0.,0.));
#471=DIRECTION('center_axis',(0.,0.,-1.));
#472=DIRECTION('ref_axis',(-1.,0.,0.));
#473=DIRECTION($,(0.,0.,1.));
#474=DIRECTION('center_axis',(0.,0.,-1.));
#475=DIRECTION('ref_axis',(-1.,0.,0.));
#476=DIRECTION('center_axis',(1.,0.,0.));
#477=DIRECTION('ref_axis',(0.,0.,-1.));
#478=DIRECTION($,(0.,-1.,0.));
#479=DIRECTION($,(0.,0.,1.));
#480=DIRECTION($,(0.,-1.,0.));
#481=DIRECTION('center_axis',(0.,0.,1.));
#482=DIRECTION('ref_axis',(1.,0.,0.));
#483=DIRECTION('center_axis',(0.,0.,1.));
#484=DIRECTION('ref_axis',(1.,0.,0.));
#485=DIRECTION($,(0.,0.,1.));
#486=DIRECTION('center_axis',(0.,0.,1.));
#487=DIRECTION('ref_axis',(1.,0.,0.));
#488=DIRECTION('center_axis',(1.,0.,0.));
#489=DIRECTION('ref_axis',(0.,0.,-1.));
#490=DIRECTION($,(0.,1.,0.));
#491=DIRECTION($,(0.,1.,0.));
#492=DIRECTION('center_axis',(0.,-1.,0.));
#493=DIRECTION('ref_axis',(0.,0.,-1.));
#494=DIRECTION($,(-1.,0.,0.));
#495=DIRECTION($,(0.,0.,1.));
#496=DIRECTION($,(-1.,0.,0.));
#497=DIRECTION('center_axis',(1.,0.,0.));
#498=DIRECTION('ref_axis',(0.,0.,-1.));
#499=DIRECTION($,(0.,-1.,0.));
#500=DIRECTION($,(0.,0.,1.));
#501=DIRECTION($,(0.,-1.,0.));
#502=DIRECTION('center_axis',(0.,1.,0.));
#503=DIRECTION('ref_axis',(0.,0.,1.));
#504=DIRECTION($,(1.,0.,0.));
#505=DIRECTION($,(0.,0.,1.));
#506=DIRECTION($,(1.,0.,0.));
#507=DIRECTION('center_axis',(0.941741896099289,-0.336336440385689,0.));
#508=DIRECTION('ref_axis',(0.,0.,-1.));
#509=DIRECTION($,(-0.336336440385689,-0.941741896099289,0.));
#510=DIRECTION($,(0.,0.,1.));
#511=DIRECTION($,(-0.336336440385689,-0.941741896099289,0.));
#512=DIRECTION('center_axis',(0.,-1.,0.));
#513=DIRECTION('ref_axis',(0.,0.,-1.));
#514=DIRECTION($,(-1.,0.,0.));
#515=DIRECTION($,(0.,0.,1.));
#516=DIRECTION($,(-1.,0.,0.));
#517=DIRECTION('center_axis',(-0.941741896099289,-0.336336440385689,0.));
#518=DIRECTION('ref_axis',(0.,0.,1.));
#519=DIRECTION($,(-0.336336440385689,0.941741896099289,0.));
#520=DIRECTION($,(0.,0.,1.));
#521=DIRECTION($,(-0.336336440385689,0.941741896099289,0.));
#522=DIRECTION('center_axis',(0.,1.,0.));
#523=DIRECTION('ref_axis',(0.,0.,1.));
#524=DIRECTION($,(1.,0.,0.));
#525=DIRECTION($,(1.,0.,0.));
#526=DIRECTION('center_axis',(0.,0.,1.));
#527=DIRECTION('ref_axis',(1.,0.,0.));
#528=DIRECTION('center_axis',(0.,0.,1.));
#529=DIRECTION('ref_axis',(1.,0.,0.));
#530=CARTESIAN_POINT('',(0.,0.,0.));
#531=CARTESIAN_POINT('Origin',(0.,-2.25,0.));
#532=CARTESIAN_POINT('',(2.25,-2.25,100.));
#533=CARTESIAN_POINT('',(-2.25,-2.25,100.));
#534=CARTESIAN_POINT('Origin',(0.,-2.25,100.));
#535=CARTESIAN_POINT('',(-2.25,-2.25,0.));
#536=CARTESIAN_POINT($,(-2.25,-2.25,0.));
#537=CARTESIAN_POINT('',(2.25,-2.25,0.));
#538=CARTESIAN_POINT('Origin',(0.,-2.25,0.));
#539=CARTESIAN_POINT($,(2.25,-2.25,0.));
#540=CARTESIAN_POINT('Origin',(-2.25,-5.75,0.));
#541=CARTESIAN_POINT('',(-2.25,-5.75,100.));
#542=CARTESIAN_POINT($,(-2.25,-4.625,100.));
#543=CARTESIAN_POINT('',(-2.25,-5.75,0.));
#544=CARTESIAN_POINT($,(-2.25,-5.75,0.));
#545=CARTESIAN_POINT($,(-2.25,-4.625,0.));
#546=CARTESIAN_POINT('Origin',(-4.149996,-4.5,0.));
#547=CARTESIAN_POINT('',(-4.149996,-4.5,100.));
#548=CARTESIAN_POINT('',(-4.149996,0.,100.));
#549=CARTESIAN_POINT($,(-4.149996,-4.,100.));
#550=CARTESIAN_POINT('',(-4.149996,0.,0.));
#551=CARTESIAN_POINT($,(-4.149996,0.,0.));
#552=CARTESIAN_POINT('',(-4.149996,-4.5,0.));
#553=CARTESIAN_POINT($,(-4.149996,-4.,0.));
#554=CARTESIAN_POINT($,(-4.149996,-4.5,0.));
#555=CARTESIAN_POINT('Origin',(-4.149996,0.,0.));
#556=CARTESIAN_POINT('',(-20.,0.,100.));
#557=CARTESIAN_POINT($,(-2.074998,0.,100.));
#558=CARTESIAN_POINT('',(-20.,0.,0.));
#559=CARTESIAN_POINT($,(-20.,0.,0.));
#560=CARTESIAN_POINT($,(-2.074998,0.,0.));
#561=CARTESIAN_POINT('Origin',(-20.,0.,0.));
#562=CARTESIAN_POINT('',(-20.,1.,100.));
#563=CARTESIAN_POINT($,(-20.,-1.75,100.));
#564=CARTESIAN_POINT('',(-20.,1.,0.));
#565=CARTESIAN_POINT($,(-20.,1.,0.));
#566=CARTESIAN_POINT($,(-20.,-1.75,0.));
#567=CARTESIAN_POINT('Origin',(-18.,1.,0.));
#568=CARTESIAN_POINT('',(-18.,3.,100.));
#569=CARTESIAN_POINT('Origin',(-18.,1.,100.));
#570=CARTESIAN_POINT('',(-18.,3.,0.));
#571=CARTESIAN_POINT($,(-18.,3.,0.));
#572=CARTESIAN_POINT('Origin',(-18.,1.,0.));
#573=CARTESIAN_POINT('Origin',(-18.,3.,0.));
#574=CARTESIAN_POINT('',(18.,3.,100.));
#575=CARTESIAN_POINT($,(-9.,3.,100.));
#576=CARTESIAN_POINT('',(18.,3.,0.));
#577=CARTESIAN_POINT($,(18.,3.,0.));
#578=CARTESIAN_POINT($,(-9.,3.,0.));
#579=CARTESIAN_POINT('Origin',(18.,1.,0.));
#580=CARTESIAN_POINT('',(20.,1.,100.));
#581=CARTESIAN_POINT('Origin',(18.,1.,100.));
#582=CARTESIAN_POINT('',(20.,1.,0.));
#583=CARTESIAN_POINT($,(20.,1.,0.));
#584=CARTESIAN_POINT('Origin',(18.,1.,0.));
#585=CARTESIAN_POINT('Origin',(20.,1.,0.));
#586=CARTESIAN_POINT('',(20.,0.,100.));
#587=CARTESIAN_POINT($,(20.,-1.25,100.));
#588=CARTESIAN_POINT('',(20.,0.,0.));
#589=CARTESIAN_POINT($,(20.,0.,0.));
#590=CARTESIAN_POINT($,(20.,-1.25,0.));
#591=CARTESIAN_POINT('Origin',(0.,-5.75,0.));
#592=CARTESIAN_POINT('',(2.25,-5.75,100.));
#593=CARTESIAN_POINT('Origin',(0.,-5.75,100.));
#594=CARTESIAN_POINT('',(2.25,-5.75,0.));
#595=CARTESIAN_POINT($,(2.25,-5.75,0.));
#596=CARTESIAN_POINT('Origin',(0.,-5.75,0.));
#597=CARTESIAN_POINT('Origin',(2.25,-2.25,0.));
#598=CARTESIAN_POINT($,(2.25,-2.875,100.));
#599=CARTESIAN_POINT($,(2.25,-2.875,0.));
#600=CARTESIAN_POINT('Origin',(20.,0.,0.));
#601=CARTESIAN_POINT('',(4.149996,0.,100.));
#602=CARTESIAN_POINT($,(10.,0.,100.));
#603=CARTESIAN_POINT('',(4.149996,0.,0.));
#604=CARTESIAN_POINT($,(4.149996,0.,0.));
#605=CARTESIAN_POINT($,(10.,0.,0.));
#606=CARTESIAN_POINT('Origin',(4.149996,0.,0.));
#607=CARTESIAN_POINT('',(4.149996,-4.5,100.));
#608=CARTESIAN_POINT($,(4.149996,-1.75,100.));
#609=CARTESIAN_POINT('',(4.149996,-4.5,0.));
#610=CARTESIAN_POINT($,(4.149996,-4.5,0.));
#611=CARTESIAN_POINT($,(4.149996,-1.75,0.));
#612=CARTESIAN_POINT('Origin',(4.149996,-4.5,0.));
#613=CARTESIAN_POINT('',(5.,-4.5,100.));
#614=CARTESIAN_POINT($,(2.074998,-4.5,100.));
#615=CARTESIAN_POINT('',(5.,-4.5,0.));
#616=CARTESIAN_POINT($,(5.,-4.5,0.));
#617=CARTESIAN_POINT($,(2.074998,-4.5,0.));
#618=CARTESIAN_POINT('Origin',(5.,-4.5,0.));
#619=CARTESIAN_POINT('',(3.035714,-10.,100.));
#620=CARTESIAN_POINT($,(4.87556555571976,-4.84841639330592,100.));
#621=CARTESIAN_POINT('',(3.035714,-10.,0.));
#622=CARTESIAN_POINT($,(3.035714,-10.,0.));
#623=CARTESIAN_POINT($,(4.87556555571976,-4.84841639330592,0.));
#624=CARTESIAN_POINT('Origin',(3.035714,-10.,0.));
#625=CARTESIAN_POINT('',(-3.035714,-10.,100.));
#626=CARTESIAN_POINT($,(1.517857,-10.,100.));
#627=CARTESIAN_POINT('',(-3.035714,-10.,0.));
#628=CARTESIAN_POINT($,(-3.035714,-10.,0.));
#629=CARTESIAN_POINT($,(1.517857,-10.,0.));
#630=CARTESIAN_POINT('Origin',(-3.035714,-10.,0.));
#631=CARTESIAN_POINT('',(-5.,-4.5,100.));
#632=CARTESIAN_POINT($,(-3.89342255571976,-7.59841639330592,100.));
#633=CARTESIAN_POINT('',(-5.,-4.5,0.));
#634=CARTESIAN_POINT($,(-5.,-4.5,0.));
#635=CARTESIAN_POINT($,(-3.89342255571976,-7.59841639330592,0.));
#636=CARTESIAN_POINT('Origin',(-5.,-4.5,0.));
#637=CARTESIAN_POINT($,(-2.5,-4.5,100.));
#638=CARTESIAN_POINT($,(-2.5,-4.5,0.));
#639=CARTESIAN_POINT('Origin',(0.,-3.5,100.));
#640=CARTESIAN_POINT('Origin',(0.,-3.5,0.));
#641=UNCERTAINTY_MEASURE_WITH_UNIT(LENGTH_MEASURE(0.01),#643,
'DISTANCE_ACCURACY_VALUE',
'Maximum model space distance between geometric entities at asserted c
onnectivities');
#642=(
GEOMETRIC_REPRESENTATION_CONTEXT(3)
GLOBAL_UNCERTAINTY_ASSIGNED_CONTEXT((#641))
GLOBAL_UNIT_ASSIGNED_CONTEXT((#643,#646,#644))
REPRESENTATION_CONTEXT('','3D')
);
#643=(
LENGTH_UNIT()
NAMED_UNIT(*)
SI_UNIT(.MILLI.,.METRE.)
);
#644=(
NAMED_UNIT(*)
SI_UNIT($,.STERADIAN.)
SOLID_ANGLE_UNIT()
);
#645=DIMENSIONAL_EXPONENTS(0.,0.,0.,0.,0.,0.,0.);
#646=(
CONVERSION_BASED_UNIT('degree',#648)
NAMED_UNIT(#645)
PLANE_ANGLE_UNIT()
);
#647=(
NAMED_UNIT(*)
PLANE_ANGLE_UNIT()
SI_UNIT($,.RADIAN.)
);
#648=PLANE_ANGLE_MEASURE_WITH_UNIT(PLANE_ANGLE_MEASURE(0.01745329252),#647);
#649=SHAPE_DEFINITION_REPRESENTATION(#650,#651);
#650=PRODUCT_DEFINITION_SHAPE('',$,#653);
#651=SHAPE_REPRESENTATION('',(#397),#642);
#652=DESIGN_CONTEXT('3D Mechanical Parts',#656,'design');
#653=PRODUCT_DEFINITION('-700002-12','-700002-12',#654,#652);
#654=PRODUCT_DEFINITION_FORMATION('',$,#658);
#655=APPLICATION_PROTOCOL_DEFINITION('international standard',
'ap203_configuration_controlled_3d_design_of_mechanical_parts_and_asse
mblies_mim_lf',2004,#656);
#656=APPLICATION_CONTEXT(
'Configuration Controlled 3D Design of Mechanical Parts and Assemblies');
#657=MECHANICAL_CONTEXT('3D Mechanical Parts',#656,'mechanical');
#658=PRODUCT('-700002-12','-700002-12',$,(#657));
#659=PRESENTATION_STYLE_ASSIGNMENT((#660));
#660=SURFACE_STYLE_USAGE(.BOTH.,#661);
#661=SURFACE_SIDE_STYLE($,(#662));
#662=SURFACE_STYLE_FILL_AREA(#663);
#663=FILL_AREA_STYLE($,(#664));
#664=FILL_AREA_STYLE_COLOUR($,#665);
#665=COLOUR_RGB('',0.258823529411765,0.258823529411765,0.258823529411765);
ENDSEC;
END-ISO-10303-21;
