ISO-10303-21;
HEADER;
/* Generated by software containing ST-Developer
 * from STEP Tools, Inc. (www.steptools.com) 
 */

FILE_DESCRIPTION(
/* description */ (''),
/* implementation_level */ '2;1');

FILE_NAME(
/* name */ 'C:\\KATALOG\\app\\Database\\step\\301225.stp',
/* time_stamp */ '2014-11-05T12:28:21+01:00',
/* author */ ('jank'),
/* organization */ (''),
/* preprocessor_version */ 'ST-DEVELOPER v15.2',
/* originating_system */ 'Autodesk Inventor 2014',
/* authorisation */ '');

FILE_SCHEMA (('CONFIG_CONTROL_DESIGN'));
ENDSEC;

DATA;
#10=SHAPE_REPRESENTATION_RELATIONSHIP('SRR','None',#364,#11);
#11=ADVANCED_BREP_SHAPE_REPRESENTATION($,(#213),#355);
#12=STYLED_ITEM($,(#373),#213);
#13=LINE($,#315,#28);
#14=LINE($,#317,#29);
#15=LINE($,#319,#30);
#16=LINE($,#320,#31);
#17=LINE($,#333,#32);
#18=LINE($,#335,#33);
#19=LINE($,#336,#34);
#20=LINE($,#339,#35);
#21=LINE($,#341,#36);
#22=LINE($,#342,#37);
#23=LINE($,#345,#38);
#24=LINE($,#347,#39);
#25=LINE($,#348,#40);
#26=LINE($,#350,#41);
#27=LINE($,#351,#42);
#28=VECTOR($,#257,29.698484809835);
#29=VECTOR($,#258,12.);
#30=VECTOR($,#259,29.698484809835);
#31=VECTOR($,#260,12.);
#32=VECTOR($,#277,3.99999999999999);
#33=VECTOR($,#278,3.99999999999999);
#34=VECTOR($,#279,12.);
#35=VECTOR($,#282,4.);
#36=VECTOR($,#283,12.);
#37=VECTOR($,#284,4.);
#38=VECTOR($,#287,25.);
#39=VECTOR($,#288,12.);
#40=VECTOR($,#289,25.);
#41=VECTOR($,#292,25.);
#42=VECTOR($,#293,25.);
#43=ELLIPSE($,#219,6.36396103067893,4.5);
#44=ELLIPSE($,#220,6.36396103067892,4.5);
#45=ELLIPSE($,#224,6.36396103067893,4.5);
#46=CYLINDRICAL_SURFACE($,#218,4.5);
#47=CYLINDRICAL_SURFACE($,#221,2.7);
#48=CYLINDRICAL_SURFACE($,#228,4.5);
#49=CYLINDRICAL_SURFACE($,#229,2.7);
#50=FACE_BOUND($,#73,.T.);
#51=FACE_BOUND($,#75,.T.);
#52=FACE_BOUND($,#77,.T.);
#53=FACE_BOUND($,#79,.T.);
#54=FACE_BOUND($,#81,.T.);
#55=FACE_BOUND($,#83,.T.);
#56=FACE_BOUND($,#85,.T.);
#57=FACE_BOUND($,#89,.T.);
#58=FACE_BOUND($,#91,.T.);
#59=FACE_OUTER_BOUND($,#72,.T.);
#60=FACE_OUTER_BOUND($,#74,.T.);
#61=FACE_OUTER_BOUND($,#76,.T.);
#62=FACE_OUTER_BOUND($,#78,.T.);
#63=FACE_OUTER_BOUND($,#80,.T.);
#64=FACE_OUTER_BOUND($,#82,.T.);
#65=FACE_OUTER_BOUND($,#84,.T.);
#66=FACE_OUTER_BOUND($,#86,.T.);
#67=FACE_OUTER_BOUND($,#87,.T.);
#68=FACE_OUTER_BOUND($,#88,.T.);
#69=FACE_OUTER_BOUND($,#90,.T.);
#70=FACE_OUTER_BOUND($,#92,.T.);
#71=FACE_OUTER_BOUND($,#93,.T.);
#72=EDGE_LOOP($,(#142));
#73=EDGE_LOOP($,(#143));
#74=EDGE_LOOP($,(#144,#145));
#75=EDGE_LOOP($,(#146));
#76=EDGE_LOOP($,(#147));
#77=EDGE_LOOP($,(#148));
#78=EDGE_LOOP($,(#149,#150,#151,#152));
#79=EDGE_LOOP($,(#153,#154));
#80=EDGE_LOOP($,(#155));
#81=EDGE_LOOP($,(#156));
#82=EDGE_LOOP($,(#157,#158));
#83=EDGE_LOOP($,(#159));
#84=EDGE_LOOP($,(#160));
#85=EDGE_LOOP($,(#161));
#86=EDGE_LOOP($,(#162,#163,#164,#165));
#87=EDGE_LOOP($,(#166,#167,#168,#169));
#88=EDGE_LOOP($,(#170,#171,#172,#173));
#89=EDGE_LOOP($,(#174));
#90=EDGE_LOOP($,(#175,#176,#177,#178));
#91=EDGE_LOOP($,(#179));
#92=EDGE_LOOP($,(#180,#181,#182,#183,#184));
#93=EDGE_LOOP($,(#185,#186,#187,#188,#189));
#94=CIRCLE($,#216,4.5);
#95=CIRCLE($,#217,2.7);
#96=CIRCLE($,#222,2.7);
#97=CIRCLE($,#226,4.5);
#98=CIRCLE($,#227,2.7);
#99=CIRCLE($,#230,2.7);
#100=VERTEX_POINT($,#300);
#101=VERTEX_POINT($,#302);
#102=VERTEX_POINT($,#305);
#103=VERTEX_POINT($,#306);
#104=VERTEX_POINT($,#310);
#105=VERTEX_POINT($,#313);
#106=VERTEX_POINT($,#314);
#107=VERTEX_POINT($,#316);
#108=VERTEX_POINT($,#318);
#109=VERTEX_POINT($,#323);
#110=VERTEX_POINT($,#325);
#111=VERTEX_POINT($,#329);
#112=VERTEX_POINT($,#332);
#113=VERTEX_POINT($,#334);
#114=VERTEX_POINT($,#338);
#115=VERTEX_POINT($,#340);
#116=VERTEX_POINT($,#344);
#117=VERTEX_POINT($,#346);
#118=EDGE_CURVE($,#100,#100,#94,.T.);
#119=EDGE_CURVE($,#101,#101,#95,.T.);
#120=EDGE_CURVE($,#102,#103,#43,.T.);
#121=EDGE_CURVE($,#103,#102,#44,.T.);
#122=EDGE_CURVE($,#104,#104,#96,.T.);
#123=EDGE_CURVE($,#105,#106,#13,.T.);
#124=EDGE_CURVE($,#107,#106,#14,.T.);
#125=EDGE_CURVE($,#108,#107,#15,.T.);
#126=EDGE_CURVE($,#108,#105,#16,.T.);
#127=EDGE_CURVE($,#102,#103,#45,.T.);
#128=EDGE_CURVE($,#109,#109,#97,.T.);
#129=EDGE_CURVE($,#110,#110,#98,.T.);
#130=EDGE_CURVE($,#111,#111,#99,.T.);
#131=EDGE_CURVE($,#112,#105,#17,.T.);
#132=EDGE_CURVE($,#113,#108,#18,.T.);
#133=EDGE_CURVE($,#113,#112,#19,.T.);
#134=EDGE_CURVE($,#106,#114,#20,.T.);
#135=EDGE_CURVE($,#115,#114,#21,.T.);
#136=EDGE_CURVE($,#107,#115,#22,.T.);
#137=EDGE_CURVE($,#114,#116,#23,.T.);
#138=EDGE_CURVE($,#117,#116,#24,.T.);
#139=EDGE_CURVE($,#115,#117,#25,.T.);
#140=EDGE_CURVE($,#116,#112,#26,.T.);
#141=EDGE_CURVE($,#117,#113,#27,.T.);
#142=ORIENTED_EDGE($,*,*,#118,.T.);
#143=ORIENTED_EDGE($,*,*,#119,.F.);
#144=ORIENTED_EDGE($,*,*,#120,.F.);
#145=ORIENTED_EDGE($,*,*,#121,.F.);
#146=ORIENTED_EDGE($,*,*,#118,.F.);
#147=ORIENTED_EDGE($,*,*,#119,.T.);
#148=ORIENTED_EDGE($,*,*,#122,.F.);
#149=ORIENTED_EDGE($,*,*,#123,.T.);
#150=ORIENTED_EDGE($,*,*,#124,.F.);
#151=ORIENTED_EDGE($,*,*,#125,.F.);
#152=ORIENTED_EDGE($,*,*,#126,.T.);
#153=ORIENTED_EDGE($,*,*,#121,.T.);
#154=ORIENTED_EDGE($,*,*,#127,.T.);
#155=ORIENTED_EDGE($,*,*,#128,.T.);
#156=ORIENTED_EDGE($,*,*,#129,.F.);
#157=ORIENTED_EDGE($,*,*,#120,.T.);
#158=ORIENTED_EDGE($,*,*,#127,.F.);
#159=ORIENTED_EDGE($,*,*,#128,.F.);
#160=ORIENTED_EDGE($,*,*,#129,.T.);
#161=ORIENTED_EDGE($,*,*,#130,.F.);
#162=ORIENTED_EDGE($,*,*,#131,.T.);
#163=ORIENTED_EDGE($,*,*,#126,.F.);
#164=ORIENTED_EDGE($,*,*,#132,.F.);
#165=ORIENTED_EDGE($,*,*,#133,.T.);
#166=ORIENTED_EDGE($,*,*,#134,.T.);
#167=ORIENTED_EDGE($,*,*,#135,.F.);
#168=ORIENTED_EDGE($,*,*,#136,.F.);
#169=ORIENTED_EDGE($,*,*,#124,.T.);
#170=ORIENTED_EDGE($,*,*,#137,.T.);
#171=ORIENTED_EDGE($,*,*,#138,.F.);
#172=ORIENTED_EDGE($,*,*,#139,.F.);
#173=ORIENTED_EDGE($,*,*,#135,.T.);
#174=ORIENTED_EDGE($,*,*,#122,.T.);
#175=ORIENTED_EDGE($,*,*,#140,.T.);
#176=ORIENTED_EDGE($,*,*,#133,.F.);
#177=ORIENTED_EDGE($,*,*,#141,.F.);
#178=ORIENTED_EDGE($,*,*,#138,.T.);
#179=ORIENTED_EDGE($,*,*,#130,.T.);
#180=ORIENTED_EDGE($,*,*,#131,.F.);
#181=ORIENTED_EDGE($,*,*,#140,.F.);
#182=ORIENTED_EDGE($,*,*,#137,.F.);
#183=ORIENTED_EDGE($,*,*,#134,.F.);
#184=ORIENTED_EDGE($,*,*,#123,.F.);
#185=ORIENTED_EDGE($,*,*,#141,.T.);
#186=ORIENTED_EDGE($,*,*,#132,.T.);
#187=ORIENTED_EDGE($,*,*,#125,.T.);
#188=ORIENTED_EDGE($,*,*,#136,.T.);
#189=ORIENTED_EDGE($,*,*,#139,.T.);
#190=PLANE($,#215);
#191=PLANE($,#223);
#192=PLANE($,#225);
#193=PLANE($,#231);
#194=PLANE($,#232);
#195=PLANE($,#233);
#196=PLANE($,#234);
#197=PLANE($,#235);
#198=PLANE($,#236);
#199=ADVANCED_FACE($,(#59,#50),#190,.T.);
#200=ADVANCED_FACE($,(#60,#51),#46,.F.);
#201=ADVANCED_FACE($,(#61,#52),#47,.F.);
#202=ADVANCED_FACE($,(#62,#53),#191,.T.);
#203=ADVANCED_FACE($,(#63,#54),#192,.T.);
#204=ADVANCED_FACE($,(#64,#55),#48,.F.);
#205=ADVANCED_FACE($,(#65,#56),#49,.F.);
#206=ADVANCED_FACE($,(#66),#193,.T.);
#207=ADVANCED_FACE($,(#67),#194,.T.);
#208=ADVANCED_FACE($,(#68,#57),#195,.T.);
#209=ADVANCED_FACE($,(#69,#58),#196,.T.);
#210=ADVANCED_FACE($,(#70),#197,.T.);
#211=ADVANCED_FACE($,(#71),#198,.F.);
#212=CLOSED_SHELL($,(#199,#200,#201,#202,#203,#204,#205,#206,#207,#208,
#209,#210,#211));
#213=MANIFOLD_SOLID_BREP('T\X2\011B\X0\leso1',#212);
#214=AXIS2_PLACEMENT_3D('placement',#298,#237,#238);
#215=AXIS2_PLACEMENT_3D($,#299,#239,#240);
#216=AXIS2_PLACEMENT_3D($,#301,#241,#242);
#217=AXIS2_PLACEMENT_3D($,#303,#243,#244);
#218=AXIS2_PLACEMENT_3D($,#304,#245,#246);
#219=AXIS2_PLACEMENT_3D($,#307,#247,#248);
#220=AXIS2_PLACEMENT_3D($,#308,#249,#250);
#221=AXIS2_PLACEMENT_3D($,#309,#251,#252);
#222=AXIS2_PLACEMENT_3D($,#311,#253,#254);
#223=AXIS2_PLACEMENT_3D($,#312,#255,#256);
#224=AXIS2_PLACEMENT_3D($,#321,#261,#262);
#225=AXIS2_PLACEMENT_3D($,#322,#263,#264);
#226=AXIS2_PLACEMENT_3D($,#324,#265,#266);
#227=AXIS2_PLACEMENT_3D($,#326,#267,#268);
#228=AXIS2_PLACEMENT_3D($,#327,#269,#270);
#229=AXIS2_PLACEMENT_3D($,#328,#271,#272);
#230=AXIS2_PLACEMENT_3D($,#330,#273,#274);
#231=AXIS2_PLACEMENT_3D($,#331,#275,#276);
#232=AXIS2_PLACEMENT_3D($,#337,#280,#281);
#233=AXIS2_PLACEMENT_3D($,#343,#285,#286);
#234=AXIS2_PLACEMENT_3D($,#349,#290,#291);
#235=AXIS2_PLACEMENT_3D($,#352,#294,#295);
#236=AXIS2_PLACEMENT_3D($,#353,#296,#297);
#237=DIRECTION('axis',(0.,0.,1.));
#238=DIRECTION('refdir',(1.,0.,0.));
#239=DIRECTION('center_axis',(2.22044604925031E-016,-1.4791141972894E-031,
1.));
#240=DIRECTION('ref_axis',(8.88178419700125E-016,1.,0.));
#241=DIRECTION('center_axis',(2.22044604925031E-016,-1.4791141972894E-031,
1.));
#242=DIRECTION('ref_axis',(6.66133814775094E-016,1.,0.));
#243=DIRECTION('center_axis',(2.22044604925031E-016,-1.4791141972894E-031,
1.));
#244=DIRECTION('ref_axis',(6.66133814775094E-016,1.,0.));
#245=DIRECTION('center_axis',(2.22044604925031E-016,-1.4791141972894E-031,
1.));
#246=DIRECTION('ref_axis',(6.66133814775094E-016,1.,0.));
#247=DIRECTION('center_axis',(-6.2803698347351E-016,-0.707106781186548,
-0.707106781186548));
#248=DIRECTION('ref_axis',(3.14018491736755E-016,0.707106781186548,-0.707106781186548));
#249=DIRECTION('center_axis',(3.14018491736755E-016,0.707106781186547,-0.707106781186548));
#250=DIRECTION('ref_axis',(6.2803698347351E-016,0.707106781186548,0.707106781186547));
#251=DIRECTION('center_axis',(2.22044604925031E-016,-1.4791141972894E-031,
1.));
#252=DIRECTION('ref_axis',(6.66133814775094E-016,1.,0.));
#253=DIRECTION('center_axis',(2.22044604925031E-016,1.83697019872103E-016,
1.));
#254=DIRECTION('ref_axis',(6.66133814775094E-016,1.,-1.83697019872103E-016));
#255=DIRECTION('center_axis',(-3.14018491736755E-016,-0.707106781186547,
0.707106781186548));
#256=DIRECTION('ref_axis',(1.,-8.88178419700125E-016,0.));
#257=DIRECTION($,(-6.2803698347351E-016,-0.707106781186548,-0.707106781186547));
#258=DIRECTION($,(-1.,6.66133814775094E-016,2.22044604925031E-016));
#259=DIRECTION($,(-6.2803698347351E-016,-0.707106781186548,-0.707106781186547));
#260=DIRECTION($,(-1.,6.66133814775094E-016,2.22044604925031E-016));
#261=DIRECTION('center_axis',(3.14018491736755E-016,0.707106781186547,-0.707106781186548));
#262=DIRECTION('ref_axis',(6.2803698347351E-016,0.707106781186548,0.707106781186547));
#263=DIRECTION('center_axis',(-6.66133814775094E-016,-1.,0.));
#264=DIRECTION('ref_axis',(0.,0.,1.));
#265=DIRECTION('center_axis',(-6.66133814775094E-016,-1.,0.));
#266=DIRECTION('ref_axis',(2.22044604925031E-016,-1.4791141972894E-031,
1.));
#267=DIRECTION('center_axis',(-6.66133814775094E-016,-1.,0.));
#268=DIRECTION('ref_axis',(2.22044604925031E-016,-1.4791141972894E-031,
1.));
#269=DIRECTION('center_axis',(-6.66133814775094E-016,-1.,0.));
#270=DIRECTION('ref_axis',(2.22044604925031E-016,-1.4791141972894E-031,
1.));
#271=DIRECTION('center_axis',(-6.66133814775094E-016,-1.,0.));
#272=DIRECTION('ref_axis',(2.22044604925031E-016,-1.4791141972894E-031,
1.));
#273=DIRECTION('center_axis',(-6.66133814775094E-016,-1.,-3.44782399010176E-034));
#274=DIRECTION('ref_axis',(2.22044604925031E-016,-1.4825620212795E-031,
1.));
#275=DIRECTION('center_axis',(2.22044604925031E-016,-1.4791141972894E-031,
1.));
#276=DIRECTION('ref_axis',(-1.,6.66133814775094E-016,0.));
#277=DIRECTION($,(-6.66133814775094E-016,-1.,0.));
#278=DIRECTION($,(-6.66133814775094E-016,-1.,0.));
#279=DIRECTION($,(-1.,6.66133814775094E-016,2.22044604925031E-016));
#280=DIRECTION('center_axis',(-6.66133814775094E-016,-1.,0.));
#281=DIRECTION('ref_axis',(1.,0.,0.));
#282=DIRECTION($,(-2.22044604925031E-016,1.4791141972894E-031,-1.));
#283=DIRECTION($,(-1.,6.66133814775094E-016,2.22044604925031E-016));
#284=DIRECTION($,(-2.22044604925031E-016,1.4791141972894E-031,-1.));
#285=DIRECTION('center_axis',(-2.22044604925031E-016,-1.83697019872103E-016,
-1.));
#286=DIRECTION('ref_axis',(1.,0.,-2.22044604925031E-016));
#287=DIRECTION($,(6.66133814775094E-016,1.,-1.83697019872103E-016));
#288=DIRECTION($,(-1.,6.66133814775094E-016,2.22044604925031E-016));
#289=DIRECTION($,(6.66133814775094E-016,1.,-1.83697019872103E-016));
#290=DIRECTION('center_axis',(6.66133814775094E-016,1.,3.44782399010176E-034));
#291=DIRECTION('ref_axis',(-1.,6.66133814775094E-016,2.22044604925031E-016));
#292=DIRECTION($,(2.22044604925031E-016,-1.4825620212795E-031,1.));
#293=DIRECTION($,(2.22044604925031E-016,-1.4825620212795E-031,1.));
#294=DIRECTION('center_axis',(-1.,6.66133814775094E-016,2.22044604925031E-016));
#295=DIRECTION('ref_axis',(0.,-1.,0.));
#296=DIRECTION('center_axis',(-1.,6.66133814775094E-016,2.22044604925031E-016));
#297=DIRECTION('ref_axis',(-6.66133814775094E-016,-1.,0.));
#298=CARTESIAN_POINT('',(0.,0.,0.));
#299=CARTESIAN_POINT('Origin',(-6.00000000000001,-15.,3.));
#300=CARTESIAN_POINT('',(-6.00000000000001,-10.5,3.));
#301=CARTESIAN_POINT('Origin',(-6.00000000000001,-15.,3.));
#302=CARTESIAN_POINT('',(-6.00000000000001,-17.7,3.));
#303=CARTESIAN_POINT('Origin',(-6.00000000000001,-15.,3.));
#304=CARTESIAN_POINT('Origin',(-6.00000000000001,-15.,14.));
#305=CARTESIAN_POINT('',(-10.4721359549996,-14.5,14.5));
#306=CARTESIAN_POINT('',(-1.52786404500043,-14.5,14.5));
#307=CARTESIAN_POINT('Origin',(-6.00000000000001,-15.,15.));
#308=CARTESIAN_POINT('Origin',(-6.00000000000001,-15.,14.));
#309=CARTESIAN_POINT('Origin',(-6.00000000000001,-15.,12.5));
#310=CARTESIAN_POINT('',(-6.00000000000001,-12.3,1.33226762955019E-015));
#311=CARTESIAN_POINT('Origin',(-6.00000000000001,-15.,5.77315972805082E-015));
#312=CARTESIAN_POINT('Origin',(2.88657986402541E-015,-3.99999999999999,
25.));
#313=CARTESIAN_POINT('',(-12.,-3.99999999999998,25.));
#314=CARTESIAN_POINT('',(-12.,-25.,4.));
#315=CARTESIAN_POINT($,(-12.,-3.99999999999998,25.));
#316=CARTESIAN_POINT('',(-1.57651669496772E-014,-25.,4.));
#317=CARTESIAN_POINT($,(-1.57651669496772E-014,-25.,4.));
#318=CARTESIAN_POINT('',(2.88657986402541E-015,-3.99999999999999,25.));
#319=CARTESIAN_POINT($,(2.88657986402541E-015,-3.99999999999999,25.));
#320=CARTESIAN_POINT($,(2.88657986402541E-015,-3.99999999999999,25.));
#321=CARTESIAN_POINT('Origin',(-6.00000000000001,-14.,15.));
#322=CARTESIAN_POINT('Origin',(-6.,-3.,15.));
#323=CARTESIAN_POINT('',(-6.,-3.,19.5));
#324=CARTESIAN_POINT('Origin',(-6.,-3.,15.));
#325=CARTESIAN_POINT('',(-6.,-3.,12.3));
#326=CARTESIAN_POINT('Origin',(-6.,-3.,15.));
#327=CARTESIAN_POINT('Origin',(-6.00000000000001,-14.,15.));
#328=CARTESIAN_POINT('Origin',(-6.00000000000001,-12.5,15.));
#329=CARTESIAN_POINT('',(-6.,3.99680288865056E-015,17.7));
#330=CARTESIAN_POINT('Origin',(-6.,3.99680288865056E-015,15.));
#331=CARTESIAN_POINT('Origin',(5.55111512312578E-015,-3.70640505319875E-030,
25.));
#332=CARTESIAN_POINT('',(-12.,7.99360577730112E-015,25.));
#333=CARTESIAN_POINT($,(-12.,7.99360577730112E-015,25.));
#334=CARTESIAN_POINT('',(5.55111512312578E-015,-3.70640505319875E-030,25.));
#335=CARTESIAN_POINT($,(5.55111512312578E-015,-3.70640505319875E-030,25.));
#336=CARTESIAN_POINT($,(5.55111512312578E-015,-3.70640505319875E-030,25.));
#337=CARTESIAN_POINT('Origin',(-1.57651669496772E-014,-25.,4.));
#338=CARTESIAN_POINT('',(-12.,-25.,7.25696075590295E-015));
#339=CARTESIAN_POINT($,(-12.,-25.,4.));
#340=CARTESIAN_POINT('',(-1.66533453693773E-014,-25.,4.59242549680257E-015));
#341=CARTESIAN_POINT($,(-1.66533453693773E-014,-25.,4.59242549680257E-015));
#342=CARTESIAN_POINT($,(-1.57651669496772E-014,-25.,4.));
#343=CARTESIAN_POINT('Origin',(-1.66533453693773E-014,-25.,4.59242549680257E-015));
#344=CARTESIAN_POINT('',(-12.,7.99360577730113E-015,2.66453525910038E-015));
#345=CARTESIAN_POINT($,(-12.,-25.,7.25696075590295E-015));
#346=CARTESIAN_POINT('',(0.,0.,0.));
#347=CARTESIAN_POINT($,(0.,0.,0.));
#348=CARTESIAN_POINT($,(-1.66533453693773E-014,-25.,4.59242549680257E-015));
#349=CARTESIAN_POINT('Origin',(0.,0.,0.));
#350=CARTESIAN_POINT($,(-12.,7.99360577730113E-015,2.66453525910038E-015));
#351=CARTESIAN_POINT($,(0.,0.,0.));
#352=CARTESIAN_POINT('Origin',(-12.,-9.70516231367268,9.70516231367269));
#353=CARTESIAN_POINT('Origin',(-4.30995786334551E-015,-9.70516231367269,
9.70516231367269));
#354=UNCERTAINTY_MEASURE_WITH_UNIT(LENGTH_MEASURE(0.01),#356,
'DISTANCE_ACCURACY_VALUE',
'Maximum model space distance between geometric entities at asserted c
onnectivities');
#355=(
GEOMETRIC_REPRESENTATION_CONTEXT(3)
GLOBAL_UNCERTAINTY_ASSIGNED_CONTEXT((#354))
GLOBAL_UNIT_ASSIGNED_CONTEXT((#356,#359,#357))
REPRESENTATION_CONTEXT('','3D')
);
#356=(
LENGTH_UNIT()
NAMED_UNIT(*)
SI_UNIT(.MILLI.,.METRE.)
);
#357=(
NAMED_UNIT(*)
SI_UNIT($,.STERADIAN.)
SOLID_ANGLE_UNIT()
);
#358=DIMENSIONAL_EXPONENTS(0.,0.,0.,0.,0.,0.,0.);
#359=(
CONVERSION_BASED_UNIT('degree',#361)
NAMED_UNIT(#358)
PLANE_ANGLE_UNIT()
);
#360=(
NAMED_UNIT(*)
PLANE_ANGLE_UNIT()
SI_UNIT($,.RADIAN.)
);
#361=PLANE_ANGLE_MEASURE_WITH_UNIT(PLANE_ANGLE_MEASURE(0.01745329252),#360);
#362=SHAPE_DEFINITION_REPRESENTATION(#363,#364);
#363=PRODUCT_DEFINITION_SHAPE('',$,#366);
#364=SHAPE_REPRESENTATION('',(#214),#355);
#365=DESIGN_CONTEXT('3D Mechanical Parts',#369,'design');
#366=PRODUCT_DEFINITION('301225','301225',#367,#365);
#367=PRODUCT_DEFINITION_FORMATION('',$,#371);
#368=APPLICATION_PROTOCOL_DEFINITION('international standard',
'ap203_configuration_controlled_3d_design_of_mechanical_parts_and_asse
mblies_mim_lf',2004,#369);
#369=APPLICATION_CONTEXT(
'Configuration Controlled 3D Design of Mechanical Parts and Assemblies');
#370=MECHANICAL_CONTEXT('3D Mechanical Parts',#369,'mechanical');
#371=PRODUCT('301225','301225',$,(#370));
#372=PRESENTATION_STYLE_ASSIGNMENT((#374));
#373=PRESENTATION_STYLE_ASSIGNMENT((#375));
#374=SURFACE_STYLE_USAGE(.BOTH.,#376);
#375=SURFACE_STYLE_USAGE(.BOTH.,#377);
#376=SURFACE_SIDE_STYLE($,(#378));
#377=SURFACE_SIDE_STYLE($,(#379));
#378=SURFACE_STYLE_FILL_AREA(#380);
#379=SURFACE_STYLE_FILL_AREA(#381);
#380=FILL_AREA_STYLE($,(#382));
#381=FILL_AREA_STYLE($,(#383));
#382=FILL_AREA_STYLE_COLOUR($,#384);
#383=FILL_AREA_STYLE_COLOUR($,#385);
#384=COLOUR_RGB('',0.749019607843137,0.749019607843137,0.749019607843137);
#385=COLOUR_RGB('',0.811764705882353,0.8,0.823529411764706);
ENDSEC;
END-ISO-10303-21;
