ISO-10303-21;
HEADER;
/* Generated by software containing ST-Developer
 * from STEP Tools, Inc. (www.steptools.com) 
 */

FILE_DESCRIPTION(
/* description */ ('Zaslepovac\X\ED profil \X2\010D\X0\ern\X\FD'),
/* implementation_level */ '2;1');

FILE_NAME(
/* name */ 'C:\\Vault_pracovn\X\ED\\Zak\X\E1zky\\Kal\X\E1b_pokus\\2308
20.stp',
/* time_stamp */ '2014-08-19T09:13:33+02:00',
/* author */ ('jank'),
/* organization */ (''),
/* preprocessor_version */ 'ST-DEVELOPER v15.2',
/* originating_system */ 'Autodesk Inventor 2014',
/* authorisation */ '');

FILE_SCHEMA (('CONFIG_CONTROL_DESIGN'));
ENDSEC;

DATA;
#10=SHAPE_REPRESENTATION_RELATIONSHIP('SRR','None',#721,#11);
#11=ADVANCED_BREP_SHAPE_REPRESENTATION($,(#426),#712);
#12=STYLED_ITEM($,(#729),#426);
#13=CIRCLE($,#432,0.25);
#14=CIRCLE($,#433,0.25);
#15=CIRCLE($,#435,0.25);
#16=CIRCLE($,#436,0.25);
#17=CIRCLE($,#439,0.25);
#18=CIRCLE($,#440,0.25);
#19=CIRCLE($,#442,0.25);
#20=CIRCLE($,#443,0.25);
#21=CIRCLE($,#448,0.25);
#22=CIRCLE($,#449,0.25);
#23=CIRCLE($,#451,0.25);
#24=CIRCLE($,#452,0.25);
#25=CIRCLE($,#455,0.25);
#26=CIRCLE($,#456,0.25);
#27=CIRCLE($,#458,0.25);
#28=CIRCLE($,#459,0.25);
#29=CYLINDRICAL_SURFACE($,#431,0.25);
#30=CYLINDRICAL_SURFACE($,#434,0.25);
#31=CYLINDRICAL_SURFACE($,#438,0.25);
#32=CYLINDRICAL_SURFACE($,#441,0.25);
#33=CYLINDRICAL_SURFACE($,#447,0.25);
#34=CYLINDRICAL_SURFACE($,#450,0.25);
#35=CYLINDRICAL_SURFACE($,#454,0.25);
#36=CYLINDRICAL_SURFACE($,#457,0.25);
#37=FACE_OUTER_BOUND($,#59,.T.);
#38=FACE_OUTER_BOUND($,#60,.T.);
#39=FACE_OUTER_BOUND($,#61,.T.);
#40=FACE_OUTER_BOUND($,#62,.T.);
#41=FACE_OUTER_BOUND($,#63,.T.);
#42=FACE_OUTER_BOUND($,#64,.T.);
#43=FACE_OUTER_BOUND($,#65,.T.);
#44=FACE_OUTER_BOUND($,#66,.T.);
#45=FACE_OUTER_BOUND($,#67,.T.);
#46=FACE_OUTER_BOUND($,#68,.T.);
#47=FACE_OUTER_BOUND($,#69,.T.);
#48=FACE_OUTER_BOUND($,#70,.T.);
#49=FACE_OUTER_BOUND($,#71,.T.);
#50=FACE_OUTER_BOUND($,#72,.T.);
#51=FACE_OUTER_BOUND($,#73,.T.);
#52=FACE_OUTER_BOUND($,#74,.T.);
#53=FACE_OUTER_BOUND($,#75,.T.);
#54=FACE_OUTER_BOUND($,#76,.T.);
#55=FACE_OUTER_BOUND($,#77,.T.);
#56=FACE_OUTER_BOUND($,#78,.T.);
#57=FACE_OUTER_BOUND($,#79,.T.);
#58=FACE_OUTER_BOUND($,#80,.T.);
#59=EDGE_LOOP($,(#269,#270,#271,#272));
#60=EDGE_LOOP($,(#273,#274,#275,#276));
#61=EDGE_LOOP($,(#277,#278,#279,#280));
#62=EDGE_LOOP($,(#281,#282,#283,#284));
#63=EDGE_LOOP($,(#285,#286,#287,#288));
#64=EDGE_LOOP($,(#289,#290,#291,#292));
#65=EDGE_LOOP($,(#293,#294,#295,#296));
#66=EDGE_LOOP($,(#297,#298,#299,#300));
#67=EDGE_LOOP($,(#301,#302,#303,#304));
#68=EDGE_LOOP($,(#305,#306,#307,#308));
#69=EDGE_LOOP($,(#309,#310,#311,#312));
#70=EDGE_LOOP($,(#313,#314,#315,#316));
#71=EDGE_LOOP($,(#317,#318,#319,#320));
#72=EDGE_LOOP($,(#321,#322,#323,#324));
#73=EDGE_LOOP($,(#325,#326,#327,#328));
#74=EDGE_LOOP($,(#329,#330,#331,#332));
#75=EDGE_LOOP($,(#333,#334,#335,#336));
#76=EDGE_LOOP($,(#337,#338,#339,#340));
#77=EDGE_LOOP($,(#341,#342,#343,#344));
#78=EDGE_LOOP($,(#345,#346,#347,#348));
#79=EDGE_LOOP($,(#349,#350,#351,#352,#353,#354,#355,#356,#357,#358,#359,
#360,#361,#362,#363,#364,#365,#366,#367,#368));
#80=EDGE_LOOP($,(#369,#370,#371,#372,#373,#374,#375,#376,#377,#378,#379,
#380,#381,#382,#383,#384,#385,#386,#387,#388));
#81=LINE($,#592,#125);
#82=LINE($,#594,#126);
#83=LINE($,#596,#127);
#84=LINE($,#597,#128);
#85=LINE($,#600,#129);
#86=LINE($,#602,#130);
#87=LINE($,#603,#131);
#88=LINE($,#606,#132);
#89=LINE($,#608,#133);
#90=LINE($,#609,#134);
#91=LINE($,#614,#135);
#92=LINE($,#620,#136);
#93=LINE($,#624,#137);
#94=LINE($,#626,#138);
#95=LINE($,#627,#139);
#96=LINE($,#632,#140);
#97=LINE($,#638,#141);
#98=LINE($,#642,#142);
#99=LINE($,#644,#143);
#100=LINE($,#645,#144);
#101=LINE($,#648,#145);
#102=LINE($,#650,#146);
#103=LINE($,#651,#147);
#104=LINE($,#654,#148);
#105=LINE($,#656,#149);
#106=LINE($,#657,#150);
#107=LINE($,#662,#151);
#108=LINE($,#668,#152);
#109=LINE($,#672,#153);
#110=LINE($,#674,#154);
#111=LINE($,#675,#155);
#112=LINE($,#680,#156);
#113=LINE($,#686,#157);
#114=LINE($,#690,#158);
#115=LINE($,#692,#159);
#116=LINE($,#693,#160);
#117=LINE($,#696,#161);
#118=LINE($,#698,#162);
#119=LINE($,#699,#163);
#120=LINE($,#702,#164);
#121=LINE($,#704,#165);
#122=LINE($,#705,#166);
#123=LINE($,#707,#167);
#124=LINE($,#708,#168);
#125=VECTOR($,#470,8.21522975941634);
#126=VECTOR($,#471,100.);
#127=VECTOR($,#472,8.21522975941634);
#128=VECTOR($,#473,100.);
#129=VECTOR($,#476,0.5);
#130=VECTOR($,#477,100.);
#131=VECTOR($,#478,0.5);
#132=VECTOR($,#481,3.74999999999994);
#133=VECTOR($,#482,100.);
#134=VECTOR($,#483,3.74999999999994);
#135=VECTOR($,#488,100.);
#136=VECTOR($,#495,100.);
#137=VECTOR($,#500,3.00000000000006);
#138=VECTOR($,#501,100.);
#139=VECTOR($,#502,3.00000000000006);
#140=VECTOR($,#507,100.);
#141=VECTOR($,#514,100.);
#142=VECTOR($,#519,2.25);
#143=VECTOR($,#520,100.);
#144=VECTOR($,#521,2.25);
#145=VECTOR($,#524,6.);
#146=VECTOR($,#525,100.);
#147=VECTOR($,#526,6.);
#148=VECTOR($,#529,2.25);
#149=VECTOR($,#530,100.);
#150=VECTOR($,#531,2.25);
#151=VECTOR($,#536,100.);
#152=VECTOR($,#543,100.);
#153=VECTOR($,#548,3.00000000000006);
#154=VECTOR($,#549,100.);
#155=VECTOR($,#550,3.00000000000006);
#156=VECTOR($,#555,100.);
#157=VECTOR($,#562,100.);
#158=VECTOR($,#567,3.74999999999994);
#159=VECTOR($,#568,100.);
#160=VECTOR($,#569,3.74999999999994);
#161=VECTOR($,#572,0.5);
#162=VECTOR($,#573,100.);
#163=VECTOR($,#574,0.5);
#164=VECTOR($,#577,8.21522975941634);
#165=VECTOR($,#578,100.);
#166=VECTOR($,#579,8.21522975941634);
#167=VECTOR($,#582,4.);
#168=VECTOR($,#583,4.);
#169=VERTEX_POINT($,#590);
#170=VERTEX_POINT($,#591);
#171=VERTEX_POINT($,#593);
#172=VERTEX_POINT($,#595);
#173=VERTEX_POINT($,#599);
#174=VERTEX_POINT($,#601);
#175=VERTEX_POINT($,#605);
#176=VERTEX_POINT($,#607);
#177=VERTEX_POINT($,#611);
#178=VERTEX_POINT($,#613);
#179=VERTEX_POINT($,#617);
#180=VERTEX_POINT($,#619);
#181=VERTEX_POINT($,#623);
#182=VERTEX_POINT($,#625);
#183=VERTEX_POINT($,#629);
#184=VERTEX_POINT($,#631);
#185=VERTEX_POINT($,#635);
#186=VERTEX_POINT($,#637);
#187=VERTEX_POINT($,#641);
#188=VERTEX_POINT($,#643);
#189=VERTEX_POINT($,#647);
#190=VERTEX_POINT($,#649);
#191=VERTEX_POINT($,#653);
#192=VERTEX_POINT($,#655);
#193=VERTEX_POINT($,#659);
#194=VERTEX_POINT($,#661);
#195=VERTEX_POINT($,#665);
#196=VERTEX_POINT($,#667);
#197=VERTEX_POINT($,#671);
#198=VERTEX_POINT($,#673);
#199=VERTEX_POINT($,#677);
#200=VERTEX_POINT($,#679);
#201=VERTEX_POINT($,#683);
#202=VERTEX_POINT($,#685);
#203=VERTEX_POINT($,#689);
#204=VERTEX_POINT($,#691);
#205=VERTEX_POINT($,#695);
#206=VERTEX_POINT($,#697);
#207=VERTEX_POINT($,#701);
#208=VERTEX_POINT($,#703);
#209=EDGE_CURVE($,#169,#170,#81,.T.);
#210=EDGE_CURVE($,#171,#170,#82,.T.);
#211=EDGE_CURVE($,#172,#171,#83,.T.);
#212=EDGE_CURVE($,#172,#169,#84,.T.);
#213=EDGE_CURVE($,#170,#173,#85,.T.);
#214=EDGE_CURVE($,#174,#173,#86,.T.);
#215=EDGE_CURVE($,#171,#174,#87,.T.);
#216=EDGE_CURVE($,#173,#175,#88,.T.);
#217=EDGE_CURVE($,#176,#175,#89,.T.);
#218=EDGE_CURVE($,#174,#176,#90,.T.);
#219=EDGE_CURVE($,#175,#177,#13,.T.);
#220=EDGE_CURVE($,#178,#177,#91,.T.);
#221=EDGE_CURVE($,#176,#178,#14,.T.);
#222=EDGE_CURVE($,#177,#179,#15,.T.);
#223=EDGE_CURVE($,#180,#179,#92,.T.);
#224=EDGE_CURVE($,#178,#180,#16,.T.);
#225=EDGE_CURVE($,#179,#181,#93,.T.);
#226=EDGE_CURVE($,#182,#181,#94,.T.);
#227=EDGE_CURVE($,#180,#182,#95,.T.);
#228=EDGE_CURVE($,#181,#183,#17,.T.);
#229=EDGE_CURVE($,#184,#183,#96,.T.);
#230=EDGE_CURVE($,#182,#184,#18,.T.);
#231=EDGE_CURVE($,#183,#185,#19,.T.);
#232=EDGE_CURVE($,#186,#185,#97,.T.);
#233=EDGE_CURVE($,#184,#186,#20,.T.);
#234=EDGE_CURVE($,#185,#187,#98,.T.);
#235=EDGE_CURVE($,#188,#187,#99,.T.);
#236=EDGE_CURVE($,#186,#188,#100,.T.);
#237=EDGE_CURVE($,#187,#189,#101,.T.);
#238=EDGE_CURVE($,#190,#189,#102,.T.);
#239=EDGE_CURVE($,#188,#190,#103,.T.);
#240=EDGE_CURVE($,#189,#191,#104,.T.);
#241=EDGE_CURVE($,#192,#191,#105,.T.);
#242=EDGE_CURVE($,#190,#192,#106,.T.);
#243=EDGE_CURVE($,#191,#193,#21,.T.);
#244=EDGE_CURVE($,#194,#193,#107,.T.);
#245=EDGE_CURVE($,#192,#194,#22,.T.);
#246=EDGE_CURVE($,#193,#195,#23,.T.);
#247=EDGE_CURVE($,#196,#195,#108,.T.);
#248=EDGE_CURVE($,#194,#196,#24,.T.);
#249=EDGE_CURVE($,#195,#197,#109,.T.);
#250=EDGE_CURVE($,#198,#197,#110,.T.);
#251=EDGE_CURVE($,#196,#198,#111,.T.);
#252=EDGE_CURVE($,#197,#199,#25,.T.);
#253=EDGE_CURVE($,#200,#199,#112,.T.);
#254=EDGE_CURVE($,#198,#200,#26,.T.);
#255=EDGE_CURVE($,#199,#201,#27,.T.);
#256=EDGE_CURVE($,#202,#201,#113,.T.);
#257=EDGE_CURVE($,#200,#202,#28,.T.);
#258=EDGE_CURVE($,#201,#203,#114,.T.);
#259=EDGE_CURVE($,#204,#203,#115,.T.);
#260=EDGE_CURVE($,#202,#204,#116,.T.);
#261=EDGE_CURVE($,#203,#205,#117,.T.);
#262=EDGE_CURVE($,#206,#205,#118,.T.);
#263=EDGE_CURVE($,#204,#206,#119,.T.);
#264=EDGE_CURVE($,#205,#207,#120,.T.);
#265=EDGE_CURVE($,#208,#207,#121,.T.);
#266=EDGE_CURVE($,#206,#208,#122,.T.);
#267=EDGE_CURVE($,#207,#169,#123,.T.);
#268=EDGE_CURVE($,#208,#172,#124,.T.);
#269=ORIENTED_EDGE($,*,*,#209,.T.);
#270=ORIENTED_EDGE($,*,*,#210,.F.);
#271=ORIENTED_EDGE($,*,*,#211,.F.);
#272=ORIENTED_EDGE($,*,*,#212,.T.);
#273=ORIENTED_EDGE($,*,*,#213,.T.);
#274=ORIENTED_EDGE($,*,*,#214,.F.);
#275=ORIENTED_EDGE($,*,*,#215,.F.);
#276=ORIENTED_EDGE($,*,*,#210,.T.);
#277=ORIENTED_EDGE($,*,*,#216,.T.);
#278=ORIENTED_EDGE($,*,*,#217,.F.);
#279=ORIENTED_EDGE($,*,*,#218,.F.);
#280=ORIENTED_EDGE($,*,*,#214,.T.);
#281=ORIENTED_EDGE($,*,*,#219,.T.);
#282=ORIENTED_EDGE($,*,*,#220,.F.);
#283=ORIENTED_EDGE($,*,*,#221,.F.);
#284=ORIENTED_EDGE($,*,*,#217,.T.);
#285=ORIENTED_EDGE($,*,*,#222,.T.);
#286=ORIENTED_EDGE($,*,*,#223,.F.);
#287=ORIENTED_EDGE($,*,*,#224,.F.);
#288=ORIENTED_EDGE($,*,*,#220,.T.);
#289=ORIENTED_EDGE($,*,*,#225,.T.);
#290=ORIENTED_EDGE($,*,*,#226,.F.);
#291=ORIENTED_EDGE($,*,*,#227,.F.);
#292=ORIENTED_EDGE($,*,*,#223,.T.);
#293=ORIENTED_EDGE($,*,*,#228,.T.);
#294=ORIENTED_EDGE($,*,*,#229,.F.);
#295=ORIENTED_EDGE($,*,*,#230,.F.);
#296=ORIENTED_EDGE($,*,*,#226,.T.);
#297=ORIENTED_EDGE($,*,*,#231,.T.);
#298=ORIENTED_EDGE($,*,*,#232,.F.);
#299=ORIENTED_EDGE($,*,*,#233,.F.);
#300=ORIENTED_EDGE($,*,*,#229,.T.);
#301=ORIENTED_EDGE($,*,*,#234,.T.);
#302=ORIENTED_EDGE($,*,*,#235,.F.);
#303=ORIENTED_EDGE($,*,*,#236,.F.);
#304=ORIENTED_EDGE($,*,*,#232,.T.);
#305=ORIENTED_EDGE($,*,*,#237,.T.);
#306=ORIENTED_EDGE($,*,*,#238,.F.);
#307=ORIENTED_EDGE($,*,*,#239,.F.);
#308=ORIENTED_EDGE($,*,*,#235,.T.);
#309=ORIENTED_EDGE($,*,*,#240,.T.);
#310=ORIENTED_EDGE($,*,*,#241,.F.);
#311=ORIENTED_EDGE($,*,*,#242,.F.);
#312=ORIENTED_EDGE($,*,*,#238,.T.);
#313=ORIENTED_EDGE($,*,*,#243,.T.);
#314=ORIENTED_EDGE($,*,*,#244,.F.);
#315=ORIENTED_EDGE($,*,*,#245,.F.);
#316=ORIENTED_EDGE($,*,*,#241,.T.);
#317=ORIENTED_EDGE($,*,*,#246,.T.);
#318=ORIENTED_EDGE($,*,*,#247,.F.);
#319=ORIENTED_EDGE($,*,*,#248,.F.);
#320=ORIENTED_EDGE($,*,*,#244,.T.);
#321=ORIENTED_EDGE($,*,*,#249,.T.);
#322=ORIENTED_EDGE($,*,*,#250,.F.);
#323=ORIENTED_EDGE($,*,*,#251,.F.);
#324=ORIENTED_EDGE($,*,*,#247,.T.);
#325=ORIENTED_EDGE($,*,*,#252,.T.);
#326=ORIENTED_EDGE($,*,*,#253,.F.);
#327=ORIENTED_EDGE($,*,*,#254,.F.);
#328=ORIENTED_EDGE($,*,*,#250,.T.);
#329=ORIENTED_EDGE($,*,*,#255,.T.);
#330=ORIENTED_EDGE($,*,*,#256,.F.);
#331=ORIENTED_EDGE($,*,*,#257,.F.);
#332=ORIENTED_EDGE($,*,*,#253,.T.);
#333=ORIENTED_EDGE($,*,*,#258,.T.);
#334=ORIENTED_EDGE($,*,*,#259,.F.);
#335=ORIENTED_EDGE($,*,*,#260,.F.);
#336=ORIENTED_EDGE($,*,*,#256,.T.);
#337=ORIENTED_EDGE($,*,*,#261,.T.);
#338=ORIENTED_EDGE($,*,*,#262,.F.);
#339=ORIENTED_EDGE($,*,*,#263,.F.);
#340=ORIENTED_EDGE($,*,*,#259,.T.);
#341=ORIENTED_EDGE($,*,*,#264,.T.);
#342=ORIENTED_EDGE($,*,*,#265,.F.);
#343=ORIENTED_EDGE($,*,*,#266,.F.);
#344=ORIENTED_EDGE($,*,*,#262,.T.);
#345=ORIENTED_EDGE($,*,*,#267,.T.);
#346=ORIENTED_EDGE($,*,*,#212,.F.);
#347=ORIENTED_EDGE($,*,*,#268,.F.);
#348=ORIENTED_EDGE($,*,*,#265,.T.);
#349=ORIENTED_EDGE($,*,*,#240,.F.);
#350=ORIENTED_EDGE($,*,*,#237,.F.);
#351=ORIENTED_EDGE($,*,*,#234,.F.);
#352=ORIENTED_EDGE($,*,*,#231,.F.);
#353=ORIENTED_EDGE($,*,*,#228,.F.);
#354=ORIENTED_EDGE($,*,*,#225,.F.);
#355=ORIENTED_EDGE($,*,*,#222,.F.);
#356=ORIENTED_EDGE($,*,*,#219,.F.);
#357=ORIENTED_EDGE($,*,*,#216,.F.);
#358=ORIENTED_EDGE($,*,*,#213,.F.);
#359=ORIENTED_EDGE($,*,*,#209,.F.);
#360=ORIENTED_EDGE($,*,*,#267,.F.);
#361=ORIENTED_EDGE($,*,*,#264,.F.);
#362=ORIENTED_EDGE($,*,*,#261,.F.);
#363=ORIENTED_EDGE($,*,*,#258,.F.);
#364=ORIENTED_EDGE($,*,*,#255,.F.);
#365=ORIENTED_EDGE($,*,*,#252,.F.);
#366=ORIENTED_EDGE($,*,*,#249,.F.);
#367=ORIENTED_EDGE($,*,*,#246,.F.);
#368=ORIENTED_EDGE($,*,*,#243,.F.);
#369=ORIENTED_EDGE($,*,*,#242,.T.);
#370=ORIENTED_EDGE($,*,*,#245,.T.);
#371=ORIENTED_EDGE($,*,*,#248,.T.);
#372=ORIENTED_EDGE($,*,*,#251,.T.);
#373=ORIENTED_EDGE($,*,*,#254,.T.);
#374=ORIENTED_EDGE($,*,*,#257,.T.);
#375=ORIENTED_EDGE($,*,*,#260,.T.);
#376=ORIENTED_EDGE($,*,*,#263,.T.);
#377=ORIENTED_EDGE($,*,*,#266,.T.);
#378=ORIENTED_EDGE($,*,*,#268,.T.);
#379=ORIENTED_EDGE($,*,*,#211,.T.);
#380=ORIENTED_EDGE($,*,*,#215,.T.);
#381=ORIENTED_EDGE($,*,*,#218,.T.);
#382=ORIENTED_EDGE($,*,*,#221,.T.);
#383=ORIENTED_EDGE($,*,*,#224,.T.);
#384=ORIENTED_EDGE($,*,*,#227,.T.);
#385=ORIENTED_EDGE($,*,*,#230,.T.);
#386=ORIENTED_EDGE($,*,*,#233,.T.);
#387=ORIENTED_EDGE($,*,*,#236,.T.);
#388=ORIENTED_EDGE($,*,*,#239,.T.);
#389=PLANE($,#428);
#390=PLANE($,#429);
#391=PLANE($,#430);
#392=PLANE($,#437);
#393=PLANE($,#444);
#394=PLANE($,#445);
#395=PLANE($,#446);
#396=PLANE($,#453);
#397=PLANE($,#460);
#398=PLANE($,#461);
#399=PLANE($,#462);
#400=PLANE($,#463);
#401=PLANE($,#464);
#402=PLANE($,#465);
#403=ADVANCED_FACE($,(#37),#389,.T.);
#404=ADVANCED_FACE($,(#38),#390,.T.);
#405=ADVANCED_FACE($,(#39),#391,.T.);
#406=ADVANCED_FACE($,(#40),#29,.F.);
#407=ADVANCED_FACE($,(#41),#30,.T.);
#408=ADVANCED_FACE($,(#42),#392,.T.);
#409=ADVANCED_FACE($,(#43),#31,.T.);
#410=ADVANCED_FACE($,(#44),#32,.F.);
#411=ADVANCED_FACE($,(#45),#393,.T.);
#412=ADVANCED_FACE($,(#46),#394,.T.);
#413=ADVANCED_FACE($,(#47),#395,.T.);
#414=ADVANCED_FACE($,(#48),#33,.F.);
#415=ADVANCED_FACE($,(#49),#34,.T.);
#416=ADVANCED_FACE($,(#50),#396,.T.);
#417=ADVANCED_FACE($,(#51),#35,.T.);
#418=ADVANCED_FACE($,(#52),#36,.F.);
#419=ADVANCED_FACE($,(#53),#397,.T.);
#420=ADVANCED_FACE($,(#54),#398,.T.);
#421=ADVANCED_FACE($,(#55),#399,.T.);
#422=ADVANCED_FACE($,(#56),#400,.T.);
#423=ADVANCED_FACE($,(#57),#401,.T.);
#424=ADVANCED_FACE($,(#58),#402,.F.);
#425=CLOSED_SHELL($,(#403,#404,#405,#406,#407,#408,#409,#410,#411,#412,
#413,#414,#415,#416,#417,#418,#419,#420,#421,#422,#423,#424));
#426=MANIFOLD_SOLID_BREP('T\X2\011B\X0\leso1',#425);
#427=AXIS2_PLACEMENT_3D('placement',#588,#466,#467);
#428=AXIS2_PLACEMENT_3D($,#589,#468,#469);
#429=AXIS2_PLACEMENT_3D($,#598,#474,#475);
#430=AXIS2_PLACEMENT_3D($,#604,#479,#480);
#431=AXIS2_PLACEMENT_3D($,#610,#484,#485);
#432=AXIS2_PLACEMENT_3D($,#612,#486,#487);
#433=AXIS2_PLACEMENT_3D($,#615,#489,#490);
#434=AXIS2_PLACEMENT_3D($,#616,#491,#492);
#435=AXIS2_PLACEMENT_3D($,#618,#493,#494);
#436=AXIS2_PLACEMENT_3D($,#621,#496,#497);
#437=AXIS2_PLACEMENT_3D($,#622,#498,#499);
#438=AXIS2_PLACEMENT_3D($,#628,#503,#504);
#439=AXIS2_PLACEMENT_3D($,#630,#505,#506);
#440=AXIS2_PLACEMENT_3D($,#633,#508,#509);
#441=AXIS2_PLACEMENT_3D($,#634,#510,#511);
#442=AXIS2_PLACEMENT_3D($,#636,#512,#513);
#443=AXIS2_PLACEMENT_3D($,#639,#515,#516);
#444=AXIS2_PLACEMENT_3D($,#640,#517,#518);
#445=AXIS2_PLACEMENT_3D($,#646,#522,#523);
#446=AXIS2_PLACEMENT_3D($,#652,#527,#528);
#447=AXIS2_PLACEMENT_3D($,#658,#532,#533);
#448=AXIS2_PLACEMENT_3D($,#660,#534,#535);
#449=AXIS2_PLACEMENT_3D($,#663,#537,#538);
#450=AXIS2_PLACEMENT_3D($,#664,#539,#540);
#451=AXIS2_PLACEMENT_3D($,#666,#541,#542);
#452=AXIS2_PLACEMENT_3D($,#669,#544,#545);
#453=AXIS2_PLACEMENT_3D($,#670,#546,#547);
#454=AXIS2_PLACEMENT_3D($,#676,#551,#552);
#455=AXIS2_PLACEMENT_3D($,#678,#553,#554);
#456=AXIS2_PLACEMENT_3D($,#681,#556,#557);
#457=AXIS2_PLACEMENT_3D($,#682,#558,#559);
#458=AXIS2_PLACEMENT_3D($,#684,#560,#561);
#459=AXIS2_PLACEMENT_3D($,#687,#563,#564);
#460=AXIS2_PLACEMENT_3D($,#688,#565,#566);
#461=AXIS2_PLACEMENT_3D($,#694,#570,#571);
#462=AXIS2_PLACEMENT_3D($,#700,#575,#576);
#463=AXIS2_PLACEMENT_3D($,#706,#580,#581);
#464=AXIS2_PLACEMENT_3D($,#709,#584,#585);
#465=AXIS2_PLACEMENT_3D($,#710,#586,#587);
#466=DIRECTION('axis',(0.,0.,1.));
#467=DIRECTION('refdir',(1.,0.,0.));
#468=DIRECTION('center_axis',(0.998146155389155,-0.0608625704505583,0.));
#469=DIRECTION('ref_axis',(0.,0.,-1.));
#470=DIRECTION($,(-0.0608625704505583,-0.998146155389155,0.));
#471=DIRECTION($,(0.,0.,1.));
#472=DIRECTION($,(-0.0608625704505583,-0.998146155389155,0.));
#473=DIRECTION($,(0.,0.,1.));
#474=DIRECTION('center_axis',(0.,-1.,0.));
#475=DIRECTION('ref_axis',(0.,0.,-1.));
#476=DIRECTION($,(-1.,0.,0.));
#477=DIRECTION($,(0.,0.,1.));
#478=DIRECTION($,(-1.,0.,0.));
#479=DIRECTION('center_axis',(-1.,0.,0.));
#480=DIRECTION('ref_axis',(0.,0.,1.));
#481=DIRECTION($,(0.,1.,0.));
#482=DIRECTION($,(0.,0.,1.));
#483=DIRECTION($,(0.,1.,0.));
#484=DIRECTION('center_axis',(0.,0.,1.));
#485=DIRECTION('ref_axis',(1.,0.,0.));
#486=DIRECTION('center_axis',(0.,0.,1.));
#487=DIRECTION('ref_axis',(1.,0.,0.));
#488=DIRECTION($,(0.,0.,1.));
#489=DIRECTION('center_axis',(0.,0.,1.));
#490=DIRECTION('ref_axis',(1.,0.,0.));
#491=DIRECTION('center_axis',(0.,0.,1.));
#492=DIRECTION('ref_axis',(1.,0.,0.));
#493=DIRECTION('center_axis',(0.,0.,-1.));
#494=DIRECTION('ref_axis',(1.,0.,0.));
#495=DIRECTION($,(0.,0.,1.));
#496=DIRECTION('center_axis',(0.,0.,-1.));
#497=DIRECTION('ref_axis',(1.,0.,0.));
#498=DIRECTION('center_axis',(-1.,0.,0.));
#499=DIRECTION('ref_axis',(0.,0.,1.));
#500=DIRECTION($,(0.,1.,0.));
#501=DIRECTION($,(0.,0.,1.));
#502=DIRECTION($,(0.,1.,0.));
#503=DIRECTION('center_axis',(0.,0.,1.));
#504=DIRECTION('ref_axis',(0.,-1.,0.));
#505=DIRECTION('center_axis',(0.,0.,-1.));
#506=DIRECTION('ref_axis',(0.,-1.,0.));
#507=DIRECTION($,(0.,0.,1.));
#508=DIRECTION('center_axis',(0.,0.,-1.));
#509=DIRECTION('ref_axis',(0.,-1.,0.));
#510=DIRECTION('center_axis',(0.,0.,1.));
#511=DIRECTION('ref_axis',(0.,-1.,0.));
#512=DIRECTION('center_axis',(0.,0.,1.));
#513=DIRECTION('ref_axis',(0.,-1.,0.));
#514=DIRECTION($,(0.,0.,1.));
#515=DIRECTION('center_axis',(0.,0.,1.));
#516=DIRECTION('ref_axis',(0.,-1.,0.));
#517=DIRECTION('center_axis',(-1.,0.,0.));
#518=DIRECTION('ref_axis',(0.,0.,1.));
#519=DIRECTION($,(0.,1.,0.));
#520=DIRECTION($,(0.,0.,1.));
#521=DIRECTION($,(0.,1.,0.));
#522=DIRECTION('center_axis',(0.,1.,0.));
#523=DIRECTION('ref_axis',(0.,0.,1.));
#524=DIRECTION($,(1.,0.,0.));
#525=DIRECTION($,(0.,0.,1.));
#526=DIRECTION($,(1.,0.,0.));
#527=DIRECTION('center_axis',(1.,0.,0.));
#528=DIRECTION('ref_axis',(0.,0.,-1.));
#529=DIRECTION($,(0.,-1.,0.));
#530=DIRECTION($,(0.,0.,1.));
#531=DIRECTION($,(0.,-1.,0.));
#532=DIRECTION('center_axis',(0.,0.,1.));
#533=DIRECTION('ref_axis',(-1.,0.,0.));
#534=DIRECTION('center_axis',(0.,0.,1.));
#535=DIRECTION('ref_axis',(-1.,0.,0.));
#536=DIRECTION($,(0.,0.,1.));
#537=DIRECTION('center_axis',(0.,0.,1.));
#538=DIRECTION('ref_axis',(-1.,0.,0.));
#539=DIRECTION('center_axis',(0.,0.,1.));
#540=DIRECTION('ref_axis',(-1.,0.,0.));
#541=DIRECTION('center_axis',(0.,0.,-1.));
#542=DIRECTION('ref_axis',(-1.,0.,0.));
#543=DIRECTION($,(0.,0.,1.));
#544=DIRECTION('center_axis',(0.,0.,-1.));
#545=DIRECTION('ref_axis',(-1.,0.,0.));
#546=DIRECTION('center_axis',(1.,0.,0.));
#547=DIRECTION('ref_axis',(0.,0.,-1.));
#548=DIRECTION($,(0.,-1.,0.));
#549=DIRECTION($,(0.,0.,1.));
#550=DIRECTION($,(0.,-1.,0.));
#551=DIRECTION('center_axis',(0.,0.,1.));
#552=DIRECTION('ref_axis',(0.,1.,0.));
#553=DIRECTION('center_axis',(0.,0.,-1.));
#554=DIRECTION('ref_axis',(0.,1.,0.));
#555=DIRECTION($,(0.,0.,1.));
#556=DIRECTION('center_axis',(0.,0.,-1.));
#557=DIRECTION('ref_axis',(0.,1.,0.));
#558=DIRECTION('center_axis',(0.,0.,1.));
#559=DIRECTION('ref_axis',(0.,1.,0.));
#560=DIRECTION('center_axis',(0.,0.,1.));
#561=DIRECTION('ref_axis',(0.,1.,0.));
#562=DIRECTION($,(0.,0.,1.));
#563=DIRECTION('center_axis',(0.,0.,1.));
#564=DIRECTION('ref_axis',(0.,1.,0.));
#565=DIRECTION('center_axis',(1.,0.,0.));
#566=DIRECTION('ref_axis',(0.,0.,-1.));
#567=DIRECTION($,(0.,-1.,0.));
#568=DIRECTION($,(0.,0.,1.));
#569=DIRECTION($,(0.,-1.,0.));
#570=DIRECTION('center_axis',(0.,-1.,0.));
#571=DIRECTION('ref_axis',(0.,0.,-1.));
#572=DIRECTION($,(-1.,0.,0.));
#573=DIRECTION($,(0.,0.,1.));
#574=DIRECTION($,(-1.,0.,0.));
#575=DIRECTION('center_axis',(-0.998146155389155,-0.0608625704505583,0.));
#576=DIRECTION('ref_axis',(0.,0.,1.));
#577=DIRECTION($,(-0.0608625704505583,0.998146155389155,0.));
#578=DIRECTION($,(0.,0.,1.));
#579=DIRECTION($,(-0.0608625704505583,0.998146155389155,0.));
#580=DIRECTION('center_axis',(-4.16333634234434E-016,-1.,0.));
#581=DIRECTION('ref_axis',(0.,0.,-1.));
#582=DIRECTION($,(-1.,4.16333634234434E-016,0.));
#583=DIRECTION($,(-1.,4.16333634234434E-016,0.));
#584=DIRECTION('center_axis',(0.,0.,1.));
#585=DIRECTION('ref_axis',(1.,0.,0.));
#586=DIRECTION('center_axis',(0.,0.,1.));
#587=DIRECTION('ref_axis',(1.,0.,0.));
#588=CARTESIAN_POINT('',(0.,0.,0.));
#589=CARTESIAN_POINT('Origin',(-2.,-1.80000000000001,0.));
#590=CARTESIAN_POINT('',(-2.,-1.80000000000001,100.));
#591=CARTESIAN_POINT('',(-2.5,-10.,100.));
#592=CARTESIAN_POINT($,(-2.09349533264187,-3.33332345532672,100.));
#593=CARTESIAN_POINT('',(-2.5,-10.,0.));
#594=CARTESIAN_POINT($,(-2.5,-10.,0.));
#595=CARTESIAN_POINT('',(-2.,-1.80000000000001,0.));
#596=CARTESIAN_POINT($,(-2.09349533264187,-3.33332345532672,0.));
#597=CARTESIAN_POINT($,(-2.,-1.80000000000001,0.));
#598=CARTESIAN_POINT('Origin',(-2.5,-10.,0.));
#599=CARTESIAN_POINT('',(-3.,-10.,100.));
#600=CARTESIAN_POINT($,(-1.25,-10.,100.));
#601=CARTESIAN_POINT('',(-3.,-10.,0.));
#602=CARTESIAN_POINT($,(-3.,-10.,0.));
#603=CARTESIAN_POINT($,(-1.25,-10.,0.));
#604=CARTESIAN_POINT('Origin',(-3.,-10.,0.));
#605=CARTESIAN_POINT('',(-3.,-6.25000000000006,100.));
#606=CARTESIAN_POINT($,(-3.,-7.5,100.));
#607=CARTESIAN_POINT('',(-3.,-6.25000000000006,0.));
#608=CARTESIAN_POINT($,(-3.,-6.25000000000006,0.));
#609=CARTESIAN_POINT($,(-3.,-7.5,0.));
#610=CARTESIAN_POINT('Origin',(-3.25,-6.25000000000006,0.));
#611=CARTESIAN_POINT('',(-3.25,-6.00000000000006,100.));
#612=CARTESIAN_POINT('Origin',(-3.25,-6.25000000000006,100.));
#613=CARTESIAN_POINT('',(-3.25,-6.00000000000006,0.));
#614=CARTESIAN_POINT($,(-3.25,-6.00000000000006,0.));
#615=CARTESIAN_POINT('Origin',(-3.25,-6.25000000000006,0.));
#616=CARTESIAN_POINT('Origin',(-3.25,-5.75000000000006,0.));
#617=CARTESIAN_POINT('',(-3.5,-5.75000000000006,100.));
#618=CARTESIAN_POINT('Origin',(-3.25,-5.75000000000006,100.));
#619=CARTESIAN_POINT('',(-3.5,-5.75000000000006,0.));
#620=CARTESIAN_POINT($,(-3.5,-5.75000000000006,0.));
#621=CARTESIAN_POINT('Origin',(-3.25,-5.75000000000006,0.));
#622=CARTESIAN_POINT('Origin',(-3.5,-5.75000000000006,0.));
#623=CARTESIAN_POINT('',(-3.5,-2.75,100.));
#624=CARTESIAN_POINT($,(-3.5,-5.37500000000003,100.));
#625=CARTESIAN_POINT('',(-3.5,-2.75,0.));
#626=CARTESIAN_POINT($,(-3.5,-2.75,0.));
#627=CARTESIAN_POINT($,(-3.5,-5.37500000000003,0.));
#628=CARTESIAN_POINT('Origin',(-3.25,-2.75,0.));
#629=CARTESIAN_POINT('',(-3.25,-2.5,100.));
#630=CARTESIAN_POINT('Origin',(-3.25,-2.75,100.));
#631=CARTESIAN_POINT('',(-3.25,-2.5,0.));
#632=CARTESIAN_POINT($,(-3.25,-2.5,0.));
#633=CARTESIAN_POINT('Origin',(-3.25,-2.75,0.));
#634=CARTESIAN_POINT('Origin',(-3.25,-2.25,0.));
#635=CARTESIAN_POINT('',(-3.,-2.25,100.));
#636=CARTESIAN_POINT('Origin',(-3.25,-2.25,100.));
#637=CARTESIAN_POINT('',(-3.,-2.25,0.));
#638=CARTESIAN_POINT($,(-3.,-2.25,0.));
#639=CARTESIAN_POINT('Origin',(-3.25,-2.25,0.));
#640=CARTESIAN_POINT('Origin',(-3.,-2.25,0.));
#641=CARTESIAN_POINT('',(-3.,0.,100.));
#642=CARTESIAN_POINT($,(-3.,-3.625,100.));
#643=CARTESIAN_POINT('',(-3.,0.,0.));
#644=CARTESIAN_POINT($,(-3.,0.,0.));
#645=CARTESIAN_POINT($,(-3.,-3.625,0.));
#646=CARTESIAN_POINT('Origin',(0.,0.,0.));
#647=CARTESIAN_POINT('',(3.,0.,100.));
#648=CARTESIAN_POINT($,(0.,0.,100.));
#649=CARTESIAN_POINT('',(3.,0.,0.));
#650=CARTESIAN_POINT($,(3.,0.,0.));
#651=CARTESIAN_POINT($,(0.,0.,0.));
#652=CARTESIAN_POINT('Origin',(3.,0.,0.));
#653=CARTESIAN_POINT('',(3.,-2.25,100.));
#654=CARTESIAN_POINT($,(3.,-2.5,100.));
#655=CARTESIAN_POINT('',(3.,-2.25,0.));
#656=CARTESIAN_POINT($,(3.,-2.25,0.));
#657=CARTESIAN_POINT($,(3.,-2.5,0.));
#658=CARTESIAN_POINT('Origin',(3.25,-2.25,0.));
#659=CARTESIAN_POINT('',(3.25,-2.5,100.));
#660=CARTESIAN_POINT('Origin',(3.25,-2.25,100.));
#661=CARTESIAN_POINT('',(3.25,-2.5,0.));
#662=CARTESIAN_POINT($,(3.25,-2.5,0.));
#663=CARTESIAN_POINT('Origin',(3.25,-2.25,0.));
#664=CARTESIAN_POINT('Origin',(3.25,-2.75,0.));
#665=CARTESIAN_POINT('',(3.5,-2.75,100.));
#666=CARTESIAN_POINT('Origin',(3.25,-2.75,100.));
#667=CARTESIAN_POINT('',(3.5,-2.75,0.));
#668=CARTESIAN_POINT($,(3.5,-2.75,0.));
#669=CARTESIAN_POINT('Origin',(3.25,-2.75,0.));
#670=CARTESIAN_POINT('Origin',(3.5,-2.75,0.));
#671=CARTESIAN_POINT('',(3.5,-5.75000000000006,100.));
#672=CARTESIAN_POINT($,(3.5,-3.875,100.));
#673=CARTESIAN_POINT('',(3.5,-5.75000000000006,0.));
#674=CARTESIAN_POINT($,(3.5,-5.75000000000006,0.));
#675=CARTESIAN_POINT($,(3.5,-3.875,0.));
#676=CARTESIAN_POINT('Origin',(3.25,-5.75000000000006,0.));
#677=CARTESIAN_POINT('',(3.25,-6.00000000000006,100.));
#678=CARTESIAN_POINT('Origin',(3.25,-5.75000000000006,100.));
#679=CARTESIAN_POINT('',(3.25,-6.00000000000006,0.));
#680=CARTESIAN_POINT($,(3.25,-6.00000000000006,0.));
#681=CARTESIAN_POINT('Origin',(3.25,-5.75000000000006,0.));
#682=CARTESIAN_POINT('Origin',(3.25,-6.25000000000006,0.));
#683=CARTESIAN_POINT('',(3.,-6.25000000000006,100.));
#684=CARTESIAN_POINT('Origin',(3.25,-6.25000000000006,100.));
#685=CARTESIAN_POINT('',(3.,-6.25000000000006,0.));
#686=CARTESIAN_POINT($,(3.,-6.25000000000006,0.));
#687=CARTESIAN_POINT('Origin',(3.25,-6.25000000000006,0.));
#688=CARTESIAN_POINT('Origin',(3.,-6.25000000000006,0.));
#689=CARTESIAN_POINT('',(3.,-10.,100.));
#690=CARTESIAN_POINT($,(3.,-5.62500000000003,100.));
#691=CARTESIAN_POINT('',(3.,-10.,0.));
#692=CARTESIAN_POINT($,(3.,-10.,0.));
#693=CARTESIAN_POINT($,(3.,-5.62500000000003,0.));
#694=CARTESIAN_POINT('Origin',(3.,-10.,0.));
#695=CARTESIAN_POINT('',(2.5,-10.,100.));
#696=CARTESIAN_POINT($,(1.5,-10.,100.));
#697=CARTESIAN_POINT('',(2.5,-10.,0.));
#698=CARTESIAN_POINT($,(2.5,-10.,0.));
#699=CARTESIAN_POINT($,(1.5,-10.,0.));
#700=CARTESIAN_POINT('Origin',(2.5,-10.,0.));
#701=CARTESIAN_POINT('',(2.,-1.80000000000001,100.));
#702=CARTESIAN_POINT($,(2.34349533264187,-7.43332345532671,100.));
#703=CARTESIAN_POINT('',(2.,-1.80000000000001,0.));
#704=CARTESIAN_POINT($,(2.,-1.80000000000001,0.));
#705=CARTESIAN_POINT($,(2.34349533264187,-7.43332345532671,0.));
#706=CARTESIAN_POINT('Origin',(0.,-1.80000000000001,0.));
#707=CARTESIAN_POINT($,(6.66133814775092E-016,-1.80000000000001,100.));
#708=CARTESIAN_POINT($,(6.66133814775092E-016,-1.80000000000001,0.));
#709=CARTESIAN_POINT('Origin',(0.,-5.,100.));
#710=CARTESIAN_POINT('Origin',(0.,-5.,0.));
#711=UNCERTAINTY_MEASURE_WITH_UNIT(LENGTH_MEASURE(0.01),#713,
'DISTANCE_ACCURACY_VALUE',
'Maximum model space distance between geometric entities at asserted c
onnectivities');
#712=(
GEOMETRIC_REPRESENTATION_CONTEXT(3)
GLOBAL_UNCERTAINTY_ASSIGNED_CONTEXT((#711))
GLOBAL_UNIT_ASSIGNED_CONTEXT((#713,#716,#714))
REPRESENTATION_CONTEXT('','3D')
);
#713=(
LENGTH_UNIT()
NAMED_UNIT(*)
SI_UNIT(.MILLI.,.METRE.)
);
#714=(
NAMED_UNIT(*)
SI_UNIT($,.STERADIAN.)
SOLID_ANGLE_UNIT()
);
#715=DIMENSIONAL_EXPONENTS(0.,0.,0.,0.,0.,0.,0.);
#716=(
CONVERSION_BASED_UNIT('degree',#718)
NAMED_UNIT(#715)
PLANE_ANGLE_UNIT()
);
#717=(
NAMED_UNIT(*)
PLANE_ANGLE_UNIT()
SI_UNIT($,.RADIAN.)
);
#718=PLANE_ANGLE_MEASURE_WITH_UNIT(PLANE_ANGLE_MEASURE(0.01745329252),#717);
#719=SHAPE_DEFINITION_REPRESENTATION(#720,#721);
#720=PRODUCT_DEFINITION_SHAPE('',$,#723);
#721=SHAPE_REPRESENTATION('',(#427),#712);
#722=DESIGN_CONTEXT('3D Mechanical Parts',#726,'design');
#723=PRODUCT_DEFINITION('-230820-25','-230820-25',#724,#722);
#724=PRODUCT_DEFINITION_FORMATION('',$,#728);
#725=APPLICATION_PROTOCOL_DEFINITION('international standard',
'ap203_configuration_controlled_3d_design_of_mechanical_parts_and_asse
mblies_mim_lf',2004,#726);
#726=APPLICATION_CONTEXT(
'Configuration Controlled 3D Design of Mechanical Parts and Assemblies');
#727=MECHANICAL_CONTEXT('3D Mechanical Parts',#726,'mechanical');
#728=PRODUCT('-230820-25','-230820-25',$,(#727));
#729=PRESENTATION_STYLE_ASSIGNMENT((#730));
#730=SURFACE_STYLE_USAGE(.BOTH.,#731);
#731=SURFACE_SIDE_STYLE($,(#732));
#732=SURFACE_STYLE_FILL_AREA(#733);
#733=FILL_AREA_STYLE($,(#734));
#734=FILL_AREA_STYLE_COLOUR($,#735);
#735=COLOUR_RGB('',0.,0.,0.);
ENDSEC;
END-ISO-10303-21;
