                                                                        S      1
,,,14H220011.stp.ipt,22HAutodesk Inventor 2014,7Hunknown,32,38,7,99,15,,G      1
1.,2,2HMM,1,0.08,15H20151016.101523,0.01,10000.,5Hzeman,,11,0,;         G      2
     406       1                       1                        00000000D      1
     406                       1       3                               0D      2
     186       2                                                00000000D      3
     186            -149       1       0                               0D      4
     514       3                                                00010000D      5
     514                       1       1                               0D      6
     196       4                                                00010000D      7
     196       0    -149       1       1                               0D      8
     192       5                                                00010000D      9
     192       0    -149       1       1                               0D     10
     190       6                                                00010000D     11
     190       0    -149       1       1                               0D     12
     190       7                                                00010000D     13
     190       0    -149       1       1                               0D     14
     190       8                                                00010000D     15
     190       0    -149       1       1                               0D     16
     123       9                                                00010200D     17
     123       0               1       0                               0D     18
     123      10                                                00010200D     19
     123       0               1       0                               0D     20
     123      11                                                00010200D     21
     123       0               1       0                               0D     22
     123      12                                                00010200D     23
     123       0               1       0                               0D     24
     123      13                                                00010200D     25
     123       0               1       0                               0D     26
     123      14                                                00010200D     27
     123       0               1       0                               0D     28
     123      15                                                00010200D     29
     123       0               1       0                               0D     30
     123      16                                                00010200D     31
     123       0               1       0                               0D     32
     123      17                                                00010200D     33
     123       0               1       0                               0D     34
     123      18                                                00010200D     35
     123       0               1       0                               0D     36
     116      19                                                00010000D     37
     116       0               1       0                               0D     38
     116      20                                                00010000D     39
     116       0               1       0                               0D     40
     116      21                                                00010000D     41
     116       0               1       0                               0D     42
     116      22                                                00010000D     43
     116       0               1       0                               0D     44
     116      23                                                00010000D     45
     116       0               1       0                               0D     46
     510      24                                                00010000D     47
     510            -149       1       1                               0D     48
     510      25                                                00010000D     49
     510            -149       1       1                               0D     50
     510      26                                                00010000D     51
     510            -149       1       1                               0D     52
     510      27                                                00010000D     53
     510            -149       1       1                               0D     54
     510      28                                                00010000D     55
     510            -149       1       1                               0D     56
     510      29                                                00010000D     57
     510            -149       1       1                               0D     58
     510      30                                                00010000D     59
     510            -149       1       1                               0D     60
     508      31                                                00010000D     61
     508                       2       1                               0D     62
     508      33                                                00010000D     63
     508                       1       1                               0D     64
     508      34                                                00010000D     65
     508                       1       1                               0D     66
     508      35                                                00010000D     67
     508                       1       1                               0D     68
     508      36                                                00010000D     69
     508                       1       1                               0D     70
     508      37                                                00010000D     71
     508                       1       1                               0D     72
     508      38                                                00010000D     73
     508                       1       1                               0D     74
     508      39                                                00010000D     75
     508                       1       1                               0D     76
     508      40                                                00010000D     77
     508                       1       1                               0D     78
     508      41                                                00010000D     79
     508                       2       1                               0D     80
     120      43                                                00010000D     81
     120       0    -149       1       0                               0D     82
     120      44                                                00010000D     83
     120       0    -149       1       0                               0D     84
     124      45                                                00000000D     85
     124                       2       0                               0D     86
     124      47                                                00000000D     87
     124                       1       0                               0D     88
     124      48                                                00000000D     89
     124                       2       0                               0D     90
     124      50                                                00000000D     91
     124                       1       0                               0D     92
     124      51                                                00000000D     93
     124                       1       0                               0D     94
     124      52                                                00000000D     95
     124                       1       0                               0D     96
     124      53                                                00000000D     97
     124                       1       0                               0D     98
     124      54                                                00000000D     99
     124                       1       0                               0D    100
     124      55                                                00000000D    101
     124                       1       0                               0D    102
     124      56                                                00000000D    103
     124                       1       0                               0D    104
     124      57                                                00000000D    105
     124                       1       0                               0D    106
     124      58                                                00000000D    107
     124                       1       0                               0D    108
     100      59                                      85        00010000D    109
     100       0               2       0                               0D    110
     100      61                                      87        00010000D    111
     100       0               1       0                               0D    112
     100      62                                      89        00010000D    113
     100       0               1       0                               0D    114
     100      63                                      91        00010000D    115
     100       0               1       0                               0D    116
     100      64                                      93        00010000D    117
     100       0               1       0                               0D    118
     100      65                                      95        00010000D    119
     100       0               1       0                               0D    120
     100      66                                      97        00010000D    121
     100       0               1       0                               0D    122
     100      67                                      99        00010000D    123
     100       0               1       0                               0D    124
     100      68                                     101        00010000D    125
     100       0               1       0                               0D    126
     100      69                                     103        00010000D    127
     100       0               1       0                               0D    128
     100      70                                     105        00010000D    129
     100       0               1       0                               0D    130
     100      71                                     107        00010000D    131
     100       0               1       0                               0D    132
     110      72                                                00010000D    133
     110       0               1       0                               0D    134
     110      73                                                00010000D    135
     110       0               1       0                               0D    136
     110      74                                                00010000D    137
     110       0               2       0                               0D    138
     110      76                                                00010000D    139
     110       0               2       0                               0D    140
     502      78                                                00010000D    141
     502                       5       1                               0D    142
     504      83                                                00010001D    143
     504                       4       1                               0D    144
     406      87                                                00000000D    145
     406                       1      15                               0D    146
     314      88                                                00000200D    147
     314                       1       0                               0D    148
     314      89                                                00000200D    149
     314                       1       0                               0D    150
406,2,0,10H220011.stp;                                                 1P      1
186,5,1,0,0,1,145;                                                     3P      2
514,7,47,1,49,1,51,1,53,1,55,1,57,1,59,1;                              5P      3
196,43,24.305,29,31;                                                   7P      4
192,39,21,5.5,23;                                                      9P      5
190,37,17,19;                                                         11P      6
190,41,25,27;                                                         13P      7
190,45,33,35;                                                         15P      8
123,0.,-1.,0.;                                                        17P      9
123,0.,0.,-1.;                                                        19P     10
123,0.,1.,0.;                                                         21P     11
123,-1.,0.,0.;                                                        23P     12
123,0.,-1.,0.;                                                        25P     13
123,0.,0.,-1.;                                                        27P     14
123,6.12323399573677D-017,0.,1.;                                      29P     15
123,1.,0.,0.;                                                         31P     16
123,0.,-1.,0.;                                                        33P     17
123,0.,0.,-1.;                                                        35P     18
116,-5.05,-4.,0.,0;                                                   37P     19
116,0.,-2.,0.,0;                                                      39P     20
116,-6.2,-1.387779D-015,0.,0;                                         41P     21
116,2.775558D-015,-23.305,0.,0;                                       43P     22
116,-2.3,-8.326673D-016,0.,0;                                         45P     23
510,81,1,1,61;                                                        47P     24
510,11,2,1,63,65;                                                     49P     25
510,9,2,1,67,69;                                                      51P     26
510,13,2,1,71,73;                                                     53P     27
510,7,1,1,75;                                                         55P     28
510,15,1,1,77;                                                        57P     29
510,83,1,1,79;                                                        59P     30
508,6,0,143,1,1,0,0,143,2,1,0,0,143,3,1,0,0,143,4,1,0,0,143,2,0,      61P     31
0,0,143,5,1,0;                                                        61P     32
508,2,0,143,4,0,0,0,143,3,0,0;                                        63P     33
508,2,0,143,6,1,0,0,143,7,1,0;                                        65P     34
508,1,0,143,8,0,0;                                                    67P     35
508,2,0,143,1,0,0,0,143,5,0,0;                                        69P     36
508,1,0,143,9,0,0;                                                    71P     37
508,1,0,143,8,1,0;                                                    73P     38
508,1,0,143,9,1,0;                                                    75P     39
508,2,0,143,10,0,0,0,143,11,0,0;                                      77P     40
508,6,0,143,6,0,0,0,143,7,0,0,0,143,12,1,0,0,143,11,1,0,0,143,        79P     41
10,1,0,0,143,12,0,0;                                                  79P     42
120,133,109,0.,6.28318530717959;                                      81P     43
120,135,137,0.,6.28318530717959;                                      83P     44
124,-1.22464679914735D-016,-0.,-1.,-6.2456986756515D-016,-0.,         85P     45
-1.,-0.,-3.6,-1.,-0.,1.22464679914735D-016,-5.1;                      85P     46
124,1.,-0.,0.,0.,0.,0.,-1.,-3.6,0.,1.,0.,0.;                          87P     47
124,-1.22464679914735D-016,-0.,-1.,-6.2456986756515D-016,-0.,         89P     48
-1.,0.,-3.6,-1.,-0.,1.22464679914735D-016,-5.1;                       89P     49
124,1.,-0.,-0.,0.,-0.,0.,1.,-4.,0.,-1.,0.,0.;                         91P     50
124,1.,-0.,-0.,0.,-0.,0.,1.,-4.,0.,-1.,0.,0.;                         93P     51
124,1.,-0.,0.,0.,0.,0.,-1.,-3.6,0.,1.,0.,0.;                          95P     52
124,-1.,-0.,0.,0.,-0.,-0.,1.,-4.,0.,1.,0.,0.;                         97P     53
124,-1.,-0.,0.,0.,-0.,-0.,1.,-4.,0.,1.,0.,0.;                         99P     54
124,-1.,-0.,0.,0.,-0.,-0.,1.,-1.110223D-015,0.,1.,0.,0.;             101P     55
124,-1.,-0.,0.,0.,-0.,-0.,1.,-1.665335D-015,0.,1.,0.,0.;             103P     56
124,-1.,-0.,0.,0.,-0.,-0.,1.,-1.110223D-015,0.,1.,0.,0.;             105P     57
124,-1.,-0.,0.,0.,-0.,-0.,1.,-1.110223D-015,0.,1.,0.,0.;             107P     58
100,0.,0.,0.,0.4,-1.07469588783715D-013,-2.30926389122033D-014,      109P     59
0.4;                                                                 109P     60
100,0.,0.,0.,-5.5,-1.347067D-015,-6.73555739531044D-016,-5.5;        111P     61
100,0.,0.,0.,0.4,0.,-0.,0.399999999999999;                           113P     62
100,0.,0.,0.,-6.2456986756515D-016,5.1,-5.1,0.;                      115P     63
100,0.,0.,0.,-5.1,0.,-6.2456986756515D-016,5.1;                      117P     64
100,0.,0.,0.,-6.73555739531044D-016,-5.5,-5.5,-1.347067D-015;        119P     65
100,0.,0.,0.,4.6,0.,-4.6,-5.63337527607783D-016;                     121P     66
100,0.,0.,0.,-4.6,-5.63337527607783D-016,4.6,0.;                     123P     67
100,0.,0.,0.,5.5,0.,5.5,0.;                                          125P     68
100,0.,0.,0.,6.9,0.,6.9,0.;                                          127P     69
100,0.,0.,0.,4.6,0.,-4.6,-5.63337527607783D-016;                     129P     70
100,0.,0.,0.,-4.6,-5.63337527607783D-016,4.6,0.;                     131P     71
110,0.,-3.6,0.,0.,-2.6,0.;                                           133P     72
110,0.,-2.,0.,0.,-1.,0.;                                             135P     73
110,4.6,-4.,-5.63337527607782D-016,4.6,-1.11022302462516D-015,       137P     74
-5.63337527607782D-016;                                              137P     75
110,4.6,-4.,-5.63337527607783D-016,4.6,-1.11022302462516D-015,       139P     76
-5.63337527607783D-016;                                              139P     77
502,10,-5.5,-3.6,-1.347067D-015,-6.73555739531044D-016,-3.6,         141P     78
-5.5,-6.2456986756515D-016,-4.,-5.1,-5.1,-4.,0.,-4.6,-4.,0.,4.6,     141P     79
-4.,-5.63337527607783D-016,-5.5,-1.110223D-015,0.,-6.9,              141P     80
-1.665335D-015,0.,-4.6,-1.110223D-015,0.,4.6,                        141P     81
-1.11022302462516D-015,-5.63337527607783D-016;                       141P     82
504,12,111,141,1,141,2,113,141,2,141,3,115,141,3,141,4,117,141,      143P     83
4,141,3,119,141,2,141,1,121,141,5,141,6,123,141,6,141,5,125,141,     143P     84
7,141,7,127,141,8,141,8,129,141,9,141,10,131,141,10,141,9,139,       143P     85
141,6,141,10;                                                        143P     86
406,1,8HTěleso1;                                                    145P     87
314,74.9019607843137,74.9019607843137,74.9019607843137,;             147P     88
314,0.,0.,0.,;                                                       149P     89
S      1G      2D    150P     89                                        T      1
