ISO-10303-21;
HEADER;
/* Generated by software containing ST-Developer
 * from STEP Tools, Inc. (www.steptools.com) 
 */

FILE_DESCRIPTION(
/* description */ (''),
/* implementation_level */ '2;1');

FILE_NAME(
/* name */ 'C:\\STEP\\210825.stp',
/* time_stamp */ '2014-03-13T20:48:13+01:00',
/* author */ ('jank'),
/* organization */ ('Alutec K&K'),
/* preprocessor_version */ 'ST-DEVELOPER v15.2',
/* originating_system */ 'Autodesk Inventor 2014',
/* authorisation */ '');

FILE_SCHEMA (('AUTOMOTIVE_DESIGN { 1 0 10303 214 3 1 1 }'));
ENDSEC;

DATA;
#10=SHAPE_REPRESENTATION_RELATIONSHIP('SRR','None',#409,#11);
#11=ADVANCED_BREP_SHAPE_REPRESENTATION($,(#252),#400);
#12=STYLED_ITEM($,(#418),#252);
#13=LINE($,#340,#43);
#14=LINE($,#342,#44);
#15=LINE($,#344,#45);
#16=LINE($,#345,#46);
#17=LINE($,#348,#47);
#18=LINE($,#350,#48);
#19=LINE($,#352,#49);
#20=LINE($,#354,#50);
#21=LINE($,#355,#51);
#22=LINE($,#358,#52);
#23=LINE($,#360,#53);
#24=LINE($,#362,#54);
#25=LINE($,#363,#55);
#26=LINE($,#366,#56);
#27=LINE($,#368,#57);
#28=LINE($,#369,#58);
#29=LINE($,#372,#59);
#30=LINE($,#374,#60);
#31=LINE($,#375,#61);
#32=LINE($,#378,#62);
#33=LINE($,#380,#63);
#34=LINE($,#381,#64);
#35=LINE($,#384,#65);
#36=LINE($,#385,#66);
#37=LINE($,#388,#67);
#38=LINE($,#390,#68);
#39=LINE($,#391,#69);
#40=LINE($,#393,#70);
#41=LINE($,#394,#71);
#42=LINE($,#396,#72);
#43=VECTOR($,#279,0.707106781186545);
#44=VECTOR($,#280,4.);
#45=VECTOR($,#281,0.866025403784437);
#46=VECTOR($,#282,4.5);
#47=VECTOR($,#285,2.12132034355964);
#48=VECTOR($,#286,9.);
#49=VECTOR($,#287,2.12132034355964);
#50=VECTOR($,#288,4.5);
#51=VECTOR($,#289,12.);
#52=VECTOR($,#292,24.);
#53=VECTOR($,#293,0.866025403784438);
#54=VECTOR($,#294,2.12132034355964);
#55=VECTOR($,#295,25.);
#56=VECTOR($,#298,0.707106781186545);
#57=VECTOR($,#299,0.866025403784438);
#58=VECTOR($,#300,4.);
#59=VECTOR($,#303,24.);
#60=VECTOR($,#304,4.);
#61=VECTOR($,#305,24.);
#62=VECTOR($,#308,25.);
#63=VECTOR($,#309,2.12132034355964);
#64=VECTOR($,#310,0.866025403784437);
#65=VECTOR($,#313,0.707106781186545);
#66=VECTOR($,#314,4.5);
#67=VECTOR($,#317,12.);
#68=VECTOR($,#318,0.707106781186545);
#69=VECTOR($,#319,24.);
#70=VECTOR($,#322,9.);
#71=VECTOR($,#323,4.5);
#72=VECTOR($,#326,4.);
#73=PLANE($,#257);
#74=PLANE($,#258);
#75=PLANE($,#259);
#76=PLANE($,#260);
#77=PLANE($,#261);
#78=PLANE($,#262);
#79=PLANE($,#263);
#80=PLANE($,#264);
#81=PLANE($,#265);
#82=PLANE($,#266);
#83=PLANE($,#267);
#84=PLANE($,#268);
#85=FACE_BOUND($,#102,.T.);
#86=FACE_BOUND($,#111,.T.);
#87=FACE_BOUND($,#116,.T.);
#88=FACE_OUTER_BOUND($,#101,.T.);
#89=FACE_OUTER_BOUND($,#103,.T.);
#90=FACE_OUTER_BOUND($,#104,.T.);
#91=FACE_OUTER_BOUND($,#105,.T.);
#92=FACE_OUTER_BOUND($,#106,.T.);
#93=FACE_OUTER_BOUND($,#107,.T.);
#94=FACE_OUTER_BOUND($,#108,.T.);
#95=FACE_OUTER_BOUND($,#109,.T.);
#96=FACE_OUTER_BOUND($,#110,.T.);
#97=FACE_OUTER_BOUND($,#112,.T.);
#98=FACE_OUTER_BOUND($,#113,.T.);
#99=FACE_OUTER_BOUND($,#114,.T.);
#100=FACE_OUTER_BOUND($,#115,.T.);
#101=EDGE_LOOP($,(#173));
#102=EDGE_LOOP($,(#174));
#103=EDGE_LOOP($,(#175,#176,#177,#178));
#104=EDGE_LOOP($,(#179,#180,#181,#182,#183,#184));
#105=EDGE_LOOP($,(#185,#186,#187,#188,#189,#190));
#106=EDGE_LOOP($,(#191,#192,#193,#194));
#107=EDGE_LOOP($,(#195,#196,#197,#198));
#108=EDGE_LOOP($,(#199,#200,#201,#202,#203,#204));
#109=EDGE_LOOP($,(#205,#206,#207,#208));
#110=EDGE_LOOP($,(#209,#210,#211,#212,#213,#214,#215,#216));
#111=EDGE_LOOP($,(#217));
#112=EDGE_LOOP($,(#218,#219,#220,#221,#222,#223));
#113=EDGE_LOOP($,(#224,#225,#226,#227));
#114=EDGE_LOOP($,(#228,#229,#230,#231));
#115=EDGE_LOOP($,(#232,#233,#234,#235));
#116=EDGE_LOOP($,(#236));
#117=CIRCLE($,#255,3.3235);
#118=CIRCLE($,#256,3.3235);
#119=VERTEX_POINT($,#333);
#120=VERTEX_POINT($,#335);
#121=VERTEX_POINT($,#338);
#122=VERTEX_POINT($,#339);
#123=VERTEX_POINT($,#341);
#124=VERTEX_POINT($,#343);
#125=VERTEX_POINT($,#347);
#126=VERTEX_POINT($,#349);
#127=VERTEX_POINT($,#351);
#128=VERTEX_POINT($,#353);
#129=VERTEX_POINT($,#357);
#130=VERTEX_POINT($,#359);
#131=VERTEX_POINT($,#361);
#132=VERTEX_POINT($,#365);
#133=VERTEX_POINT($,#367);
#134=VERTEX_POINT($,#371);
#135=VERTEX_POINT($,#373);
#136=VERTEX_POINT($,#377);
#137=VERTEX_POINT($,#379);
#138=VERTEX_POINT($,#383);
#139=VERTEX_POINT($,#387);
#140=VERTEX_POINT($,#389);
#141=EDGE_CURVE($,#119,#119,#117,.T.);
#142=EDGE_CURVE($,#120,#120,#118,.T.);
#143=EDGE_CURVE($,#121,#122,#13,.T.);
#144=EDGE_CURVE($,#122,#123,#14,.T.);
#145=EDGE_CURVE($,#123,#124,#15,.T.);
#146=EDGE_CURVE($,#124,#121,#16,.T.);
#147=EDGE_CURVE($,#125,#124,#17,.T.);
#148=EDGE_CURVE($,#126,#125,#18,.T.);
#149=EDGE_CURVE($,#127,#126,#19,.T.);
#150=EDGE_CURVE($,#128,#127,#20,.T.);
#151=EDGE_CURVE($,#128,#121,#21,.T.);
#152=EDGE_CURVE($,#123,#129,#22,.T.);
#153=EDGE_CURVE($,#130,#129,#23,.T.);
#154=EDGE_CURVE($,#130,#131,#24,.T.);
#155=EDGE_CURVE($,#131,#125,#25,.T.);
#156=EDGE_CURVE($,#132,#128,#26,.T.);
#157=EDGE_CURVE($,#127,#133,#27,.T.);
#158=EDGE_CURVE($,#133,#132,#28,.T.);
#159=EDGE_CURVE($,#134,#133,#29,.T.);
#160=EDGE_CURVE($,#135,#134,#30,.T.);
#161=EDGE_CURVE($,#135,#132,#31,.T.);
#162=EDGE_CURVE($,#126,#136,#32,.T.);
#163=EDGE_CURVE($,#136,#137,#33,.T.);
#164=EDGE_CURVE($,#134,#137,#34,.T.);
#165=EDGE_CURVE($,#138,#135,#35,.T.);
#166=EDGE_CURVE($,#137,#138,#36,.T.);
#167=EDGE_CURVE($,#139,#138,#37,.T.);
#168=EDGE_CURVE($,#140,#139,#38,.T.);
#169=EDGE_CURVE($,#122,#140,#39,.T.);
#170=EDGE_CURVE($,#131,#136,#40,.T.);
#171=EDGE_CURVE($,#139,#130,#41,.T.);
#172=EDGE_CURVE($,#129,#140,#42,.T.);
#173=ORIENTED_EDGE($,*,*,#141,.F.);
#174=ORIENTED_EDGE($,*,*,#142,.F.);
#175=ORIENTED_EDGE($,*,*,#143,.T.);
#176=ORIENTED_EDGE($,*,*,#144,.T.);
#177=ORIENTED_EDGE($,*,*,#145,.T.);
#178=ORIENTED_EDGE($,*,*,#146,.T.);
#179=ORIENTED_EDGE($,*,*,#146,.F.);
#180=ORIENTED_EDGE($,*,*,#147,.F.);
#181=ORIENTED_EDGE($,*,*,#148,.F.);
#182=ORIENTED_EDGE($,*,*,#149,.F.);
#183=ORIENTED_EDGE($,*,*,#150,.F.);
#184=ORIENTED_EDGE($,*,*,#151,.T.);
#185=ORIENTED_EDGE($,*,*,#145,.F.);
#186=ORIENTED_EDGE($,*,*,#152,.T.);
#187=ORIENTED_EDGE($,*,*,#153,.F.);
#188=ORIENTED_EDGE($,*,*,#154,.T.);
#189=ORIENTED_EDGE($,*,*,#155,.T.);
#190=ORIENTED_EDGE($,*,*,#147,.T.);
#191=ORIENTED_EDGE($,*,*,#156,.T.);
#192=ORIENTED_EDGE($,*,*,#150,.T.);
#193=ORIENTED_EDGE($,*,*,#157,.T.);
#194=ORIENTED_EDGE($,*,*,#158,.T.);
#195=ORIENTED_EDGE($,*,*,#158,.F.);
#196=ORIENTED_EDGE($,*,*,#159,.F.);
#197=ORIENTED_EDGE($,*,*,#160,.F.);
#198=ORIENTED_EDGE($,*,*,#161,.T.);
#199=ORIENTED_EDGE($,*,*,#157,.F.);
#200=ORIENTED_EDGE($,*,*,#149,.T.);
#201=ORIENTED_EDGE($,*,*,#162,.T.);
#202=ORIENTED_EDGE($,*,*,#163,.T.);
#203=ORIENTED_EDGE($,*,*,#164,.F.);
#204=ORIENTED_EDGE($,*,*,#159,.T.);
#205=ORIENTED_EDGE($,*,*,#165,.T.);
#206=ORIENTED_EDGE($,*,*,#160,.T.);
#207=ORIENTED_EDGE($,*,*,#164,.T.);
#208=ORIENTED_EDGE($,*,*,#166,.T.);
#209=ORIENTED_EDGE($,*,*,#143,.F.);
#210=ORIENTED_EDGE($,*,*,#151,.F.);
#211=ORIENTED_EDGE($,*,*,#156,.F.);
#212=ORIENTED_EDGE($,*,*,#161,.F.);
#213=ORIENTED_EDGE($,*,*,#165,.F.);
#214=ORIENTED_EDGE($,*,*,#167,.F.);
#215=ORIENTED_EDGE($,*,*,#168,.F.);
#216=ORIENTED_EDGE($,*,*,#169,.F.);
#217=ORIENTED_EDGE($,*,*,#142,.T.);
#218=ORIENTED_EDGE($,*,*,#166,.F.);
#219=ORIENTED_EDGE($,*,*,#163,.F.);
#220=ORIENTED_EDGE($,*,*,#170,.F.);
#221=ORIENTED_EDGE($,*,*,#154,.F.);
#222=ORIENTED_EDGE($,*,*,#171,.F.);
#223=ORIENTED_EDGE($,*,*,#167,.T.);
#224=ORIENTED_EDGE($,*,*,#168,.T.);
#225=ORIENTED_EDGE($,*,*,#171,.T.);
#226=ORIENTED_EDGE($,*,*,#153,.T.);
#227=ORIENTED_EDGE($,*,*,#172,.T.);
#228=ORIENTED_EDGE($,*,*,#144,.F.);
#229=ORIENTED_EDGE($,*,*,#169,.T.);
#230=ORIENTED_EDGE($,*,*,#172,.F.);
#231=ORIENTED_EDGE($,*,*,#152,.F.);
#232=ORIENTED_EDGE($,*,*,#162,.F.);
#233=ORIENTED_EDGE($,*,*,#148,.T.);
#234=ORIENTED_EDGE($,*,*,#155,.F.);
#235=ORIENTED_EDGE($,*,*,#170,.T.);
#236=ORIENTED_EDGE($,*,*,#141,.T.);
#237=CYLINDRICAL_SURFACE($,#254,3.3235);
#238=ADVANCED_FACE($,(#88,#85),#237,.F.);
#239=ADVANCED_FACE($,(#89),#73,.T.);
#240=ADVANCED_FACE($,(#90),#74,.T.);
#241=ADVANCED_FACE($,(#91),#75,.T.);
#242=ADVANCED_FACE($,(#92),#76,.T.);
#243=ADVANCED_FACE($,(#93),#77,.T.);
#244=ADVANCED_FACE($,(#94),#78,.T.);
#245=ADVANCED_FACE($,(#95),#79,.T.);
#246=ADVANCED_FACE($,(#96,#86),#80,.T.);
#247=ADVANCED_FACE($,(#97),#81,.T.);
#248=ADVANCED_FACE($,(#98),#82,.T.);
#249=ADVANCED_FACE($,(#99),#83,.T.);
#250=ADVANCED_FACE($,(#100,#87),#84,.F.);
#251=CLOSED_SHELL($,(#238,#239,#240,#241,#242,#243,#244,#245,#246,#247,
#248,#249,#250));
#252=MANIFOLD_SOLID_BREP('T\X2\011B\X0\leso1',#251);
#253=AXIS2_PLACEMENT_3D('placement',#331,#269,#270);
#254=AXIS2_PLACEMENT_3D($,#332,#271,#272);
#255=AXIS2_PLACEMENT_3D($,#334,#273,#274);
#256=AXIS2_PLACEMENT_3D($,#336,#275,#276);
#257=AXIS2_PLACEMENT_3D($,#337,#277,#278);
#258=AXIS2_PLACEMENT_3D($,#346,#283,#284);
#259=AXIS2_PLACEMENT_3D($,#356,#290,#291);
#260=AXIS2_PLACEMENT_3D($,#364,#296,#297);
#261=AXIS2_PLACEMENT_3D($,#370,#301,#302);
#262=AXIS2_PLACEMENT_3D($,#376,#306,#307);
#263=AXIS2_PLACEMENT_3D($,#382,#311,#312);
#264=AXIS2_PLACEMENT_3D($,#386,#315,#316);
#265=AXIS2_PLACEMENT_3D($,#392,#320,#321);
#266=AXIS2_PLACEMENT_3D($,#395,#324,#325);
#267=AXIS2_PLACEMENT_3D($,#397,#327,#328);
#268=AXIS2_PLACEMENT_3D($,#398,#329,#330);
#269=DIRECTION('axis',(0.,0.,1.));
#270=DIRECTION('refdir',(1.,0.,0.));
#271=DIRECTION('center_axis',(-1.,6.66133814775094E-016,2.22044604925031E-016));
#272=DIRECTION('ref_axis',(-6.66133814775094E-016,-1.,0.));
#273=DIRECTION('center_axis',(-1.,6.66133814775094E-016,2.22044604925031E-016));
#274=DIRECTION('ref_axis',(-6.66133814775094E-016,-1.,0.));
#275=DIRECTION('center_axis',(1.,-6.66133814775094E-016,-2.22044604925031E-016));
#276=DIRECTION('ref_axis',(-6.66133814775094E-016,-1.,0.));
#277=DIRECTION('center_axis',(-6.2803698347351E-016,-0.707106781186548,
-0.707106781186548));
#278=DIRECTION('ref_axis',(1.,0.,0.));
#279=DIRECTION($,(3.14018491736755E-016,0.707106781186548,-0.707106781186548));
#280=DIRECTION($,(1.,-6.66133814775094E-016,-2.22044604925031E-016));
#281=DIRECTION($,(0.577350269189626,-0.577350269189626,0.577350269189626));
#282=DIRECTION($,(-1.,6.66133814775094E-016,2.22044604925031E-016));
#283=DIRECTION('center_axis',(-6.66133814775094E-016,-1.,0.));
#284=DIRECTION('ref_axis',(1.,0.,0.));
#285=DIRECTION($,(-0.707106781186548,4.71027737605133E-016,-0.707106781186547));
#286=DIRECTION($,(-2.22044604925031E-016,1.4791141972894E-031,-1.));
#287=DIRECTION($,(0.707106781186548,-4.71027737605133E-016,-0.707106781186547));
#288=DIRECTION($,(1.,-6.66133814775094E-016,-2.22044604925031E-016));
#289=DIRECTION($,(-2.22044604925031E-016,1.4791141972894E-031,-1.));
#290=DIRECTION('center_axis',(0.707106781186547,-3.76822190084106E-016,
-0.707106781186548));
#291=DIRECTION('ref_axis',(4.44089209850063E-016,1.,0.));
#292=DIRECTION($,(6.66133814775094E-016,1.,1.33226762955019E-016));
#293=DIRECTION($,(-0.577350269189627,-0.577350269189623,-0.577350269189627));
#294=DIRECTION($,(0.707106781186548,-4.71027737605133E-016,0.707106781186547));
#295=DIRECTION($,(-6.66133814775094E-016,-1.,-1.33226762955019E-016));
#296=DIRECTION('center_axis',(-3.14018491736756E-016,-0.707106781186549,
0.707106781186546));
#297=DIRECTION('ref_axis',(1.,0.,0.));
#298=DIRECTION($,(-6.28036983473509E-016,-0.707106781186546,-0.707106781186549));
#299=DIRECTION($,(-0.577350269189626,0.577350269189624,0.577350269189627));
#300=DIRECTION($,(-1.,6.66133814775094E-016,2.22044604925031E-016));
#301=DIRECTION('center_axis',(2.22044604925031E-016,4.44089209850062E-017,
1.));
#302=DIRECTION('ref_axis',(-1.,0.,0.));
#303=DIRECTION($,(-6.66133814775094E-016,-1.,4.44089209850063E-017));
#304=DIRECTION($,(1.,-6.66133814775094E-016,-2.22044604925031E-016));
#305=DIRECTION($,(-6.66133814775094E-016,-1.,4.44089209850063E-017));
#306=DIRECTION('center_axis',(0.707106781186547,-4.39625888431457E-016,
0.707106781186548));
#307=DIRECTION('ref_axis',(6.66133814775094E-016,1.,0.));
#308=DIRECTION($,(6.66133814775094E-016,1.,-4.44089209850063E-017));
#309=DIRECTION($,(-0.707106781186548,4.71027737605133E-016,0.707106781186547));
#310=DIRECTION($,(0.577350269189626,0.577350269189625,-0.577350269189626));
#311=DIRECTION('center_axis',(6.2803698347351E-016,0.707106781186548,0.707106781186548));
#312=DIRECTION('ref_axis',(-1.,0.,0.));
#313=DIRECTION($,(-3.14018491736755E-016,-0.707106781186548,0.707106781186548));
#314=DIRECTION($,(-1.,6.66133814775094E-016,2.22044604925031E-016));
#315=DIRECTION('center_axis',(-1.,6.66133814775094E-016,2.22044604925031E-016));
#316=DIRECTION('ref_axis',(-8.88178419700125E-016,-1.,0.));
#317=DIRECTION($,(2.22044604925031E-016,-1.4791141972894E-031,1.));
#318=DIRECTION($,(6.28036983473509E-016,0.707106781186546,0.707106781186549));
#319=DIRECTION($,(6.66133814775094E-016,1.,1.33226762955019E-016));
#320=DIRECTION('center_axis',(6.66133814775094E-016,1.,0.));
#321=DIRECTION('ref_axis',(-1.,0.,0.));
#322=DIRECTION($,(2.22044604925031E-016,-1.4791141972894E-031,1.));
#323=DIRECTION($,(1.,-6.66133814775094E-016,-2.22044604925031E-016));
#324=DIRECTION('center_axis',(3.14018491736756E-016,0.707106781186549,-0.707106781186546));
#325=DIRECTION('ref_axis',(-1.,0.,0.));
#326=DIRECTION($,(-1.,6.66133814775094E-016,2.22044604925031E-016));
#327=DIRECTION('center_axis',(-2.22044604925031E-016,1.33226762955019E-016,
-1.));
#328=DIRECTION('ref_axis',(1.,0.,0.));
#329=DIRECTION('center_axis',(-1.,6.66133814775094E-016,2.22044604925031E-016));
#330=DIRECTION('ref_axis',(-6.66133814775094E-016,-1.,0.));
#331=CARTESIAN_POINT('',(0.,0.,0.));
#332=CARTESIAN_POINT('Origin',(22.8097205817759,-1.51943261850924E-014,
-5.06477539503078E-015));
#333=CARTESIAN_POINT('',(2.21389573340502E-015,3.3235,-4.07011363696623E-016));
#334=CARTESIAN_POINT('Origin',(0.,0.,0.));
#335=CARTESIAN_POINT('',(-6.,-3.3235,1.33226762955019E-015));
#336=CARTESIAN_POINT('Origin',(-6.,3.99680288865056E-015,1.33226762955019E-015));
#337=CARTESIAN_POINT('Origin',(-9.54791801177635E-015,-12.25,-6.25));
#338=CARTESIAN_POINT('',(-6.00000000000001,-12.5,-6.));
#339=CARTESIAN_POINT('',(-6.00000000000001,-12.,-6.5));
#340=CARTESIAN_POINT($,(-6.00000000000001,-10.75,-7.75));
#341=CARTESIAN_POINT('',(-2.00000000000001,-12.,-6.5));
#342=CARTESIAN_POINT($,(-9.43689570931383E-015,-12.,-6.5));
#343=CARTESIAN_POINT('',(-1.50000000000001,-12.5,-6.));
#344=CARTESIAN_POINT($,(-2.20833333333334,-11.7916666666667,-6.70833333333333));
#345=CARTESIAN_POINT($,(-9.65894031423886E-015,-12.5,-6.));
#346=CARTESIAN_POINT('Origin',(-6.88338275267597E-015,-12.5,6.5));
#347=CARTESIAN_POINT('',(-9.32587340685131E-015,-12.5,-4.5));
#348=CARTESIAN_POINT($,(2.24999999999999,-12.5,-2.25));
#349=CARTESIAN_POINT('',(-7.32747196252603E-015,-12.5,4.5));
#350=CARTESIAN_POINT($,(-6.88338275267597E-015,-12.5,6.5));
#351=CARTESIAN_POINT('',(-1.50000000000001,-12.5,6.));
#352=CARTESIAN_POINT($,(-1.00000000000001,-12.5,5.5));
#353=CARTESIAN_POINT('',(-6.00000000000001,-12.5,6.));
#354=CARTESIAN_POINT($,(-6.99440505513849E-015,-12.5,6.));
#355=CARTESIAN_POINT($,(-6.00000000000001,-12.5,6.5));
#356=CARTESIAN_POINT('Origin',(-1.00000000000001,-6.25,-5.5));
#357=CARTESIAN_POINT('',(-1.99999999999999,12.,-6.5));
#358=CARTESIAN_POINT($,(-2.00000000000001,-6.25,-6.5));
#359=CARTESIAN_POINT('',(-1.49999999999999,12.5,-6.));
#360=CARTESIAN_POINT($,(-4.29166666666666,9.70833333333335,-8.79166666666666));
#361=CARTESIAN_POINT('',(7.32747196252603E-015,12.5,-4.5));
#362=CARTESIAN_POINT($,(-0.999999999999993,12.5,-5.49999999999999));
#363=CARTESIAN_POINT($,(-5.16253706450698E-015,-6.25,-4.5));
#364=CARTESIAN_POINT('Origin',(-6.77236045021346E-015,-12.25,6.25));
#365=CARTESIAN_POINT('',(-6.00000000000001,-12.,6.5));
#366=CARTESIAN_POINT($,(-6.00000000000001,-10.75,7.74999999999999));
#367=CARTESIAN_POINT('',(-2.00000000000001,-12.,6.5));
#368=CARTESIAN_POINT($,(-4.29166666666666,-9.70833333333335,8.79166666666666));
#369=CARTESIAN_POINT($,(-6.55031584528843E-015,-12.,6.5));
#370=CARTESIAN_POINT('Origin',(9.76996261670138E-015,12.5,6.5));
#371=CARTESIAN_POINT('',(-1.99999999999999,12.,6.5));
#372=CARTESIAN_POINT($,(-1.99999999999999,6.25,6.5));
#373=CARTESIAN_POINT('',(-5.99999999999999,12.,6.5));
#374=CARTESIAN_POINT($,(9.43689570931383E-015,12.,6.5));
#375=CARTESIAN_POINT($,(-5.99999999999999,12.5,6.5));
#376=CARTESIAN_POINT('Origin',(-0.999999999999995,6.25,5.5));
#377=CARTESIAN_POINT('',(9.32587340685131E-015,12.5,4.5));
#378=CARTESIAN_POINT($,(5.16253706450698E-015,6.25,4.5));
#379=CARTESIAN_POINT('',(-1.49999999999999,12.5,6.));
#380=CARTESIAN_POINT($,(2.25000000000001,12.5,2.25));
#381=CARTESIAN_POINT($,(-2.20833333333332,11.7916666666667,6.70833333333333));
#382=CARTESIAN_POINT('Origin',(9.54791801177635E-015,12.25,6.25));
#383=CARTESIAN_POINT('',(-5.99999999999999,12.5,6.));
#384=CARTESIAN_POINT($,(-5.99999999999999,10.75,7.75));
#385=CARTESIAN_POINT($,(9.65894031423886E-015,12.5,6.));
#386=CARTESIAN_POINT('Origin',(-6.,3.44169137633799E-015,3.55138566082846E-015));
#387=CARTESIAN_POINT('',(-5.99999999999999,12.5,-6.));
#388=CARTESIAN_POINT($,(-5.99999999999999,12.5,-6.5));
#389=CARTESIAN_POINT('',(-5.99999999999999,12.,-6.5));
#390=CARTESIAN_POINT($,(-6.,10.75,-7.74999999999999));
#391=CARTESIAN_POINT($,(-6.00000000000001,-12.5,-6.5));
#392=CARTESIAN_POINT('Origin',(6.88338275267597E-015,12.5,-6.5));
#393=CARTESIAN_POINT($,(6.88338275267597E-015,12.5,-6.5));
#394=CARTESIAN_POINT($,(6.99440505513849E-015,12.5,-6.));
#395=CARTESIAN_POINT('Origin',(6.77236045021346E-015,12.25,-6.25));
#396=CARTESIAN_POINT($,(6.55031584528843E-015,12.,-6.5));
#397=CARTESIAN_POINT('Origin',(-9.76996261670138E-015,-12.5,-6.5));
#398=CARTESIAN_POINT('Origin',(1.22964637214848E-031,-5.55111512312578E-016,
2.21911803127827E-015));
#399=UNCERTAINTY_MEASURE_WITH_UNIT(LENGTH_MEASURE(0.01),#401,
'DISTANCE_ACCURACY_VALUE',
'Maximum model space distance between geometric entities at asserted c
onnectivities');
#400=(
GEOMETRIC_REPRESENTATION_CONTEXT(3)
GLOBAL_UNCERTAINTY_ASSIGNED_CONTEXT((#399))
GLOBAL_UNIT_ASSIGNED_CONTEXT((#401,#404,#402))
REPRESENTATION_CONTEXT('','3D')
);
#401=(
LENGTH_UNIT()
NAMED_UNIT(*)
SI_UNIT(.MILLI.,.METRE.)
);
#402=(
NAMED_UNIT(*)
SI_UNIT($,.STERADIAN.)
SOLID_ANGLE_UNIT()
);
#403=DIMENSIONAL_EXPONENTS(0.,0.,0.,0.,0.,0.,0.);
#404=(
CONVERSION_BASED_UNIT('degree',#406)
NAMED_UNIT(#403)
PLANE_ANGLE_UNIT()
);
#405=(
NAMED_UNIT(*)
PLANE_ANGLE_UNIT()
SI_UNIT($,.RADIAN.)
);
#406=PLANE_ANGLE_MEASURE_WITH_UNIT(PLANE_ANGLE_MEASURE(0.01745329252),#405);
#407=SHAPE_DEFINITION_REPRESENTATION(#408,#409);
#408=PRODUCT_DEFINITION_SHAPE('',$,#411);
#409=SHAPE_REPRESENTATION('',(#253),#400);
#410=PRODUCT_DEFINITION_CONTEXT('3D Mechanical Parts',#414,'design');
#411=PRODUCT_DEFINITION('210825','210825',#412,#410);
#412=PRODUCT_DEFINITION_FORMATION('',$,#416);
#413=APPLICATION_PROTOCOL_DEFINITION('international standard',
'automotive_design',2009,#414);
#414=APPLICATION_CONTEXT(
'Core Data for Automotive Mechanical Design Process');
#415=PRODUCT_CONTEXT('3D Mechanical Parts',#414,'mechanical');
#416=PRODUCT('210825','210825',$,(#415));
#417=PRESENTATION_STYLE_ASSIGNMENT((#419));
#418=PRESENTATION_STYLE_ASSIGNMENT((#420));
#419=SURFACE_STYLE_USAGE(.BOTH.,#421);
#420=SURFACE_STYLE_USAGE(.BOTH.,#422);
#421=SURFACE_SIDE_STYLE($,(#423));
#422=SURFACE_SIDE_STYLE($,(#424));
#423=SURFACE_STYLE_FILL_AREA(#425);
#424=SURFACE_STYLE_FILL_AREA(#426);
#425=FILL_AREA_STYLE($,(#427));
#426=FILL_AREA_STYLE($,(#428));
#427=FILL_AREA_STYLE_COLOUR($,#429);
#428=FILL_AREA_STYLE_COLOUR($,#430);
#429=COLOUR_RGB('',0.749019607843137,0.749019607843137,0.749019607843137);
#430=COLOUR_RGB('',0.63921568627451,0.63921568627451,0.686274509803922);
ENDSEC;
END-ISO-10303-21;
