ISO-10303-21;
HEADER;
/* Generated by software containing ST-Developer
 * from STEP Tools, Inc. (www.steptools.com) 
 */

FILE_DESCRIPTION(
/* description */ ('Matice 45'),
/* implementation_level */ '2;1');

FILE_NAME(
/* name */ 'D:\\Work\\Zakazky\\2013\\AlutecKK\\stp\\210600.stp',
/* time_stamp */ '2013-12-08T11:04:02+01:00',
/* author */ ('PC'),
/* organization */ (''),
/* preprocessor_version */ 'ST-DEVELOPER v15.2',
/* originating_system */ 'Autodesk Inventor 2014',
/* authorisation */ '');

FILE_SCHEMA (('AUTOMOTIVE_DESIGN { 1 0 10303 214 3 1 1 }'));
ENDSEC;

DATA;
#10=SHAPE_REPRESENTATION_RELATIONSHIP('SRR','None',#231,#11);
#11=ADVANCED_BREP_SHAPE_REPRESENTATION($,(#133),#222);
#12=STYLED_ITEM($,(#239),#133);
#13=LINE($,#205,#21);
#14=LINE($,#207,#22);
#15=LINE($,#208,#23);
#16=LINE($,#211,#24);
#17=LINE($,#212,#25);
#18=LINE($,#215,#26);
#19=LINE($,#216,#27);
#20=LINE($,#218,#28);
#21=VECTOR($,#160,1.60761184457488);
#22=VECTOR($,#161,13.);
#23=VECTOR($,#162,1.60761184457488);
#24=VECTOR($,#165,1.60761184457488);
#25=VECTOR($,#166,13.);
#26=VECTOR($,#169,1.60761184457488);
#27=VECTOR($,#170,13.);
#28=VECTOR($,#173,13.);
#29=PLANE($,#140);
#30=PLANE($,#141);
#31=PLANE($,#142);
#32=PLANE($,#143);
#33=PLANE($,#144);
#34=PLANE($,#145);
#35=(
BOUNDED_CURVE()
B_SPLINE_CURVE(2,(#187,#188,#189),.UNSPECIFIED.,.F.,.F.)
B_SPLINE_CURVE_WITH_KNOTS((3,3),(0.0587433032615019,1.53342502954415),
 .UNSPECIFIED.)
CURVE()
GEOMETRIC_REPRESENTATION_ITEM()
RATIONAL_B_SPLINE_CURVE((1.03553390593274,1.46446609406627,1.03553390593472))
REPRESENTATION_ITEM($)
);
#36=(
BOUNDED_CURVE()
B_SPLINE_CURVE(2,(#191,#192,#193),.UNSPECIFIED.,.F.,.F.)
B_SPLINE_CURVE_WITH_KNOTS((3,3),(0.0587433032615019,1.53342502954415),
 .UNSPECIFIED.)
CURVE()
GEOMETRIC_REPRESENTATION_ITEM()
RATIONAL_B_SPLINE_CURVE((1.03553390593274,1.46446609406627,1.03553390593472))
REPRESENTATION_ITEM($)
);
#37=(
BOUNDED_CURVE()
B_SPLINE_CURVE(2,(#195,#196,#197),.UNSPECIFIED.,.F.,.F.)
B_SPLINE_CURVE_WITH_KNOTS((3,3),(0.0587433032615019,1.53342502954415),
 .UNSPECIFIED.)
CURVE()
GEOMETRIC_REPRESENTATION_ITEM()
RATIONAL_B_SPLINE_CURVE((1.03553390593274,1.46446609406627,1.03553390593472))
REPRESENTATION_ITEM($)
);
#38=(
BOUNDED_CURVE()
B_SPLINE_CURVE(2,(#198,#199,#200),.UNSPECIFIED.,.F.,.F.)
B_SPLINE_CURVE_WITH_KNOTS((3,3),(0.0587433032615019,1.53342502954415),
 .UNSPECIFIED.)
CURVE()
GEOMETRIC_REPRESENTATION_ITEM()
RATIONAL_B_SPLINE_CURVE((1.03553390593274,1.46446609406627,1.03553390593472))
REPRESENTATION_ITEM($)
);
#39=CONICAL_SURFACE($,#138,7.275,45.);
#40=FACE_BOUND($,#53,.T.);
#41=FACE_BOUND($,#55,.T.);
#42=FACE_BOUND($,#60,.T.);
#43=FACE_BOUND($,#61,.T.);
#44=FACE_BOUND($,#62,.T.);
#45=FACE_BOUND($,#63,.T.);
#46=FACE_OUTER_BOUND($,#52,.T.);
#47=FACE_OUTER_BOUND($,#54,.T.);
#48=FACE_OUTER_BOUND($,#56,.T.);
#49=FACE_OUTER_BOUND($,#57,.T.);
#50=FACE_OUTER_BOUND($,#58,.T.);
#51=FACE_OUTER_BOUND($,#59,.T.);
#52=EDGE_LOOP($,(#93));
#53=EDGE_LOOP($,(#94));
#54=EDGE_LOOP($,(#95,#96,#97,#98));
#55=EDGE_LOOP($,(#99));
#56=EDGE_LOOP($,(#100,#101,#102,#103));
#57=EDGE_LOOP($,(#104,#105,#106,#107));
#58=EDGE_LOOP($,(#108,#109,#110,#111));
#59=EDGE_LOOP($,(#112,#113,#114,#115));
#60=EDGE_LOOP($,(#116));
#61=EDGE_LOOP($,(#117));
#62=EDGE_LOOP($,(#118));
#63=EDGE_LOOP($,(#119,#120,#121,#122));
#64=CIRCLE($,#136,2.4585);
#65=CIRCLE($,#137,2.4585);
#66=CIRCLE($,#139,4.8);
#67=VERTEX_POINT($,#180);
#68=VERTEX_POINT($,#182);
#69=VERTEX_POINT($,#185);
#70=VERTEX_POINT($,#186);
#71=VERTEX_POINT($,#190);
#72=VERTEX_POINT($,#194);
#73=VERTEX_POINT($,#201);
#74=VERTEX_POINT($,#204);
#75=VERTEX_POINT($,#206);
#76=VERTEX_POINT($,#210);
#77=VERTEX_POINT($,#214);
#78=EDGE_CURVE($,#67,#67,#64,.T.);
#79=EDGE_CURVE($,#68,#68,#65,.T.);
#80=EDGE_CURVE($,#69,#70,#35,.T.);
#81=EDGE_CURVE($,#71,#69,#36,.T.);
#82=EDGE_CURVE($,#72,#71,#37,.T.);
#83=EDGE_CURVE($,#70,#72,#38,.T.);
#84=EDGE_CURVE($,#73,#73,#66,.T.);
#85=EDGE_CURVE($,#74,#71,#13,.T.);
#86=EDGE_CURVE($,#75,#74,#14,.T.);
#87=EDGE_CURVE($,#75,#72,#15,.T.);
#88=EDGE_CURVE($,#76,#69,#16,.T.);
#89=EDGE_CURVE($,#74,#76,#17,.T.);
#90=EDGE_CURVE($,#77,#70,#18,.T.);
#91=EDGE_CURVE($,#76,#77,#19,.T.);
#92=EDGE_CURVE($,#77,#75,#20,.T.);
#93=ORIENTED_EDGE($,*,*,#78,.F.);
#94=ORIENTED_EDGE($,*,*,#79,.F.);
#95=ORIENTED_EDGE($,*,*,#80,.F.);
#96=ORIENTED_EDGE($,*,*,#81,.F.);
#97=ORIENTED_EDGE($,*,*,#82,.F.);
#98=ORIENTED_EDGE($,*,*,#83,.F.);
#99=ORIENTED_EDGE($,*,*,#84,.F.);
#100=ORIENTED_EDGE($,*,*,#82,.T.);
#101=ORIENTED_EDGE($,*,*,#85,.F.);
#102=ORIENTED_EDGE($,*,*,#86,.F.);
#103=ORIENTED_EDGE($,*,*,#87,.T.);
#104=ORIENTED_EDGE($,*,*,#81,.T.);
#105=ORIENTED_EDGE($,*,*,#88,.F.);
#106=ORIENTED_EDGE($,*,*,#89,.F.);
#107=ORIENTED_EDGE($,*,*,#85,.T.);
#108=ORIENTED_EDGE($,*,*,#80,.T.);
#109=ORIENTED_EDGE($,*,*,#90,.F.);
#110=ORIENTED_EDGE($,*,*,#91,.F.);
#111=ORIENTED_EDGE($,*,*,#88,.T.);
#112=ORIENTED_EDGE($,*,*,#83,.T.);
#113=ORIENTED_EDGE($,*,*,#87,.F.);
#114=ORIENTED_EDGE($,*,*,#92,.F.);
#115=ORIENTED_EDGE($,*,*,#90,.T.);
#116=ORIENTED_EDGE($,*,*,#79,.T.);
#117=ORIENTED_EDGE($,*,*,#84,.T.);
#118=ORIENTED_EDGE($,*,*,#78,.T.);
#119=ORIENTED_EDGE($,*,*,#89,.T.);
#120=ORIENTED_EDGE($,*,*,#91,.T.);
#121=ORIENTED_EDGE($,*,*,#92,.T.);
#122=ORIENTED_EDGE($,*,*,#86,.T.);
#123=CYLINDRICAL_SURFACE($,#135,2.4585);
#124=ADVANCED_FACE($,(#46,#40),#123,.F.);
#125=ADVANCED_FACE($,(#47,#41),#39,.T.);
#126=ADVANCED_FACE($,(#48),#29,.T.);
#127=ADVANCED_FACE($,(#49),#30,.T.);
#128=ADVANCED_FACE($,(#50),#31,.T.);
#129=ADVANCED_FACE($,(#51),#32,.T.);
#130=ADVANCED_FACE($,(#42,#43),#33,.T.);
#131=ADVANCED_FACE($,(#44,#45),#34,.F.);
#132=CLOSED_SHELL($,(#124,#125,#126,#127,#128,#129,#130,#131));
#133=MANIFOLD_SOLID_BREP('Solid1',#132);
#134=AXIS2_PLACEMENT_3D('placement',#178,#146,#147);
#135=AXIS2_PLACEMENT_3D($,#179,#148,#149);
#136=AXIS2_PLACEMENT_3D($,#181,#150,#151);
#137=AXIS2_PLACEMENT_3D($,#183,#152,#153);
#138=AXIS2_PLACEMENT_3D($,#184,#154,#155);
#139=AXIS2_PLACEMENT_3D($,#202,#156,#157);
#140=AXIS2_PLACEMENT_3D($,#203,#158,#159);
#141=AXIS2_PLACEMENT_3D($,#209,#163,#164);
#142=AXIS2_PLACEMENT_3D($,#213,#167,#168);
#143=AXIS2_PLACEMENT_3D($,#217,#171,#172);
#144=AXIS2_PLACEMENT_3D($,#219,#174,#175);
#145=AXIS2_PLACEMENT_3D($,#220,#176,#177);
#146=DIRECTION('axis',(0.,0.,1.));
#147=DIRECTION('refdir',(1.,0.,0.));
#148=DIRECTION('center_axis',(1.,0.,0.));
#149=DIRECTION('ref_axis',(0.,0.,-1.));
#150=DIRECTION('center_axis',(1.,0.,0.));
#151=DIRECTION('ref_axis',(0.,0.,-1.));
#152=DIRECTION('center_axis',(-1.,0.,0.));
#153=DIRECTION('ref_axis',(0.,0.,-1.));
#154=DIRECTION('center_axis',(-1.,0.,0.));
#155=DIRECTION('ref_axis',(0.,1.,0.));
#156=DIRECTION('center_axis',(1.,0.,0.));
#157=DIRECTION('ref_axis',(0.,1.,0.));
#158=DIRECTION('center_axis',(0.,-1.,0.));
#159=DIRECTION('ref_axis',(0.,0.,-1.));
#160=DIRECTION($,(1.,0.,0.));
#161=DIRECTION($,(0.,0.,1.));
#162=DIRECTION($,(1.,0.,0.));
#163=DIRECTION('center_axis',(0.,0.,1.));
#164=DIRECTION('ref_axis',(1.,0.,0.));
#165=DIRECTION($,(1.,0.,0.));
#166=DIRECTION($,(0.,1.,0.));
#167=DIRECTION('center_axis',(0.,1.,0.));
#168=DIRECTION('ref_axis',(0.,0.,1.));
#169=DIRECTION($,(1.,0.,0.));
#170=DIRECTION($,(0.,0.,-1.));
#171=DIRECTION('center_axis',(0.,0.,-1.));
#172=DIRECTION('ref_axis',(-1.,0.,0.));
#173=DIRECTION($,(0.,-1.,0.));
#174=DIRECTION('center_axis',(1.,0.,0.));
#175=DIRECTION('ref_axis',(0.,0.,-1.));
#176=DIRECTION('center_axis',(1.,0.,0.));
#177=DIRECTION('ref_axis',(0.,0.,-1.));
#178=CARTESIAN_POINT('',(0.,0.,0.));
#179=CARTESIAN_POINT('Origin',(-13.4032782776762,0.,0.));
#180=CARTESIAN_POINT('',(0.,-3.01079415570377E-016,2.4585));
#181=CARTESIAN_POINT('Origin',(0.,0.,0.));
#182=CARTESIAN_POINT('',(6.,0.,-2.4585));
#183=CARTESIAN_POINT('Origin',(6.,0.,0.));
#184=CARTESIAN_POINT('Origin',(3.525,0.,0.));
#185=CARTESIAN_POINT('',(1.60761184457488,6.5,6.5));
#186=CARTESIAN_POINT('',(1.60761184457488,6.5,-6.5));
#187=CARTESIAN_POINT('Ctrl Pts',(1.60761184457488,6.5,6.5));
#188=CARTESIAN_POINT('Ctrl Pts',(6.20380592224986,6.5,-3.18911563823576E-011));
#189=CARTESIAN_POINT('Ctrl Pts',(1.60761184457488,6.5,-6.5));
#190=CARTESIAN_POINT('',(1.60761184457488,-6.5,6.5));
#191=CARTESIAN_POINT('Ctrl Pts',(1.60761184457488,-6.5,6.5));
#192=CARTESIAN_POINT('Ctrl Pts',(6.20380592224986,3.18922666053822E-011,
6.5));
#193=CARTESIAN_POINT('Ctrl Pts',(1.60761184457488,6.5,6.5));
#194=CARTESIAN_POINT('',(1.60761184457488,-6.5,-6.5));
#195=CARTESIAN_POINT('Ctrl Pts',(1.60761184457488,-6.5,-6.5));
#196=CARTESIAN_POINT('Ctrl Pts',(6.20380592224986,-6.5,3.18911563823576E-011));
#197=CARTESIAN_POINT('Ctrl Pts',(1.60761184457488,-6.5,6.5));
#198=CARTESIAN_POINT('Ctrl Pts',(1.60761184457488,6.5,-6.5));
#199=CARTESIAN_POINT('Ctrl Pts',(6.20380592224986,-3.18878257132837E-011,
-6.5));
#200=CARTESIAN_POINT('Ctrl Pts',(1.60761184457488,-6.5,-6.5));
#201=CARTESIAN_POINT('',(6.,4.8,0.));
#202=CARTESIAN_POINT('Origin',(6.,0.,0.));
#203=CARTESIAN_POINT('Origin',(0.,-6.5,-6.5));
#204=CARTESIAN_POINT('',(0.,-6.5,6.5));
#205=CARTESIAN_POINT($,(0.,-6.5,6.5));
#206=CARTESIAN_POINT('',(0.,-6.5,-6.5));
#207=CARTESIAN_POINT($,(0.,-6.5,-6.5));
#208=CARTESIAN_POINT($,(0.,-6.5,-6.5));
#209=CARTESIAN_POINT('Origin',(0.,-6.5,6.5));
#210=CARTESIAN_POINT('',(0.,6.5,6.5));
#211=CARTESIAN_POINT($,(0.,6.5,6.5));
#212=CARTESIAN_POINT($,(0.,-6.5,6.5));
#213=CARTESIAN_POINT('Origin',(0.,6.5,6.5));
#214=CARTESIAN_POINT('',(0.,6.5,-6.5));
#215=CARTESIAN_POINT($,(0.,6.5,-6.5));
#216=CARTESIAN_POINT($,(0.,6.5,6.5));
#217=CARTESIAN_POINT('Origin',(0.,6.5,-6.5));
#218=CARTESIAN_POINT($,(0.,6.5,-6.5));
#219=CARTESIAN_POINT('Origin',(6.,0.,6.81273219656346E-016));
#220=CARTESIAN_POINT('Origin',(0.,0.,4.54182146437564E-016));
#221=UNCERTAINTY_MEASURE_WITH_UNIT(LENGTH_MEASURE(0.01),#223,
'DISTANCE_ACCURACY_VALUE',
'Maximum model space distance between geometric entities at asserted c
onnectivities');
#222=(
GEOMETRIC_REPRESENTATION_CONTEXT(3)
GLOBAL_UNCERTAINTY_ASSIGNED_CONTEXT((#221))
GLOBAL_UNIT_ASSIGNED_CONTEXT((#223,#226,#224))
REPRESENTATION_CONTEXT('','3D')
);
#223=(
LENGTH_UNIT()
NAMED_UNIT(*)
SI_UNIT(.MILLI.,.METRE.)
);
#224=(
NAMED_UNIT(*)
SI_UNIT($,.STERADIAN.)
SOLID_ANGLE_UNIT()
);
#225=DIMENSIONAL_EXPONENTS(0.,0.,0.,0.,0.,0.,0.);
#226=(
CONVERSION_BASED_UNIT('degree',#228)
NAMED_UNIT(#225)
PLANE_ANGLE_UNIT()
);
#227=(
NAMED_UNIT(*)
PLANE_ANGLE_UNIT()
SI_UNIT($,.RADIAN.)
);
#228=PLANE_ANGLE_MEASURE_WITH_UNIT(PLANE_ANGLE_MEASURE(0.01745329252),#227);
#229=SHAPE_DEFINITION_REPRESENTATION(#230,#231);
#230=PRODUCT_DEFINITION_SHAPE('',$,#233);
#231=SHAPE_REPRESENTATION('',(#134),#222);
#232=PRODUCT_DEFINITION_CONTEXT('3D Mechanical Parts',#236,'design');
#233=PRODUCT_DEFINITION('210600','210600',#234,#232);
#234=PRODUCT_DEFINITION_FORMATION('',$,#238);
#235=APPLICATION_PROTOCOL_DEFINITION('international standard',
'automotive_design',2009,#236);
#236=APPLICATION_CONTEXT(
'Core Data for Automotive Mechanical Design Process');
#237=PRODUCT_CONTEXT('3D Mechanical Parts',#236,'mechanical');
#238=PRODUCT('210600','210600',$,(#237));
#239=PRESENTATION_STYLE_ASSIGNMENT((#240));
#240=SURFACE_STYLE_USAGE(.BOTH.,#241);
#241=SURFACE_SIDE_STYLE($,(#242));
#242=SURFACE_STYLE_FILL_AREA(#243);
#243=FILL_AREA_STYLE($,(#244));
#244=FILL_AREA_STYLE_COLOUR($,#245);
#245=COLOUR_RGB('',0.63921568627451,0.63921568627451,0.686274509803922);
ENDSEC;
END-ISO-10303-21;
