ISO-10303-21;
HEADER;
/* Generated by software containing ST-Developer
 * from STEP Tools, Inc. (www.steptools.com) 
 */

FILE_DESCRIPTION(
/* description */ ('\X2\0161\X0\roub DIN 912'),
/* implementation_level */ '2;1');

FILE_NAME(
/* name */ 'C:\\KATALOG\\app\\Database\\step\\200408.1.stp',
/* time_stamp */ '2017-06-29T17:05:18+02:00',
/* author */ ('jiri.spacek'),
/* organization */ (''),
/* preprocessor_version */ 'ST-DEVELOPER v16.1',
/* originating_system */ 'Autodesk Inventor 2016',
/* authorisation */ '');

FILE_SCHEMA (('CONFIG_CONTROL_DESIGN'));
ENDSEC;

DATA;
#10=MECHANICAL_DESIGN_GEOMETRIC_PRESENTATION_REPRESENTATION('',(#13),#377);
#11=SHAPE_REPRESENTATION_RELATIONSHIP('SRR','None',#386,#12);
#12=ADVANCED_BREP_SHAPE_REPRESENTATION('',(#14),#376);
#13=STYLED_ITEM('',(#395),#14);
#14=MANIFOLD_SOLID_BREP('Solid1',#220);
#15=(
BOUNDED_CURVE()
B_SPLINE_CURVE(2,(#340,#341,#342),.UNSPECIFIED.,.F.,.F.)
B_SPLINE_CURVE_WITH_KNOTS((3,3),(0.,0.175265420711688),.UNSPECIFIED.)
CURVE()
GEOMETRIC_REPRESENTATION_ITEM()
RATIONAL_B_SPLINE_CURVE((1.,1.15470053837925,1.))
REPRESENTATION_ITEM('')
);
#16=(
BOUNDED_CURVE()
B_SPLINE_CURVE(2,(#347,#348,#349),.UNSPECIFIED.,.F.,.F.)
B_SPLINE_CURVE_WITH_KNOTS((3,3),(0.,0.175265420711687),.UNSPECIFIED.)
CURVE()
GEOMETRIC_REPRESENTATION_ITEM()
RATIONAL_B_SPLINE_CURVE((1.,1.15470053837925,1.))
REPRESENTATION_ITEM('')
);
#17=(
BOUNDED_CURVE()
B_SPLINE_CURVE(2,(#353,#354,#355),.UNSPECIFIED.,.F.,.F.)
B_SPLINE_CURVE_WITH_KNOTS((3,3),(0.,0.175265420711687),.UNSPECIFIED.)
CURVE()
GEOMETRIC_REPRESENTATION_ITEM()
RATIONAL_B_SPLINE_CURVE((1.,1.15470053837925,1.))
REPRESENTATION_ITEM('')
);
#18=(
BOUNDED_CURVE()
B_SPLINE_CURVE(2,(#359,#360,#361),.UNSPECIFIED.,.F.,.F.)
B_SPLINE_CURVE_WITH_KNOTS((3,3),(0.,0.175265420711688),.UNSPECIFIED.)
CURVE()
GEOMETRIC_REPRESENTATION_ITEM()
RATIONAL_B_SPLINE_CURVE((1.,1.15470053837925,1.))
REPRESENTATION_ITEM('')
);
#19=(
BOUNDED_CURVE()
B_SPLINE_CURVE(2,(#365,#366,#367),.UNSPECIFIED.,.F.,.F.)
B_SPLINE_CURVE_WITH_KNOTS((3,3),(0.,0.175265420711687),.UNSPECIFIED.)
CURVE()
GEOMETRIC_REPRESENTATION_ITEM()
RATIONAL_B_SPLINE_CURVE((1.,1.15470053837925,1.))
REPRESENTATION_ITEM('')
);
#20=(
BOUNDED_CURVE()
B_SPLINE_CURVE(2,(#370,#371,#372),.UNSPECIFIED.,.F.,.F.)
B_SPLINE_CURVE_WITH_KNOTS((3,3),(0.,0.175265420711687),.UNSPECIFIED.)
CURVE()
GEOMETRIC_REPRESENTATION_ITEM()
RATIONAL_B_SPLINE_CURVE((1.,1.15470053837925,1.))
REPRESENTATION_ITEM('')
);
#21=LINE('',#326,#33);
#22=LINE('',#328,#34);
#23=LINE('',#330,#35);
#24=LINE('',#332,#36);
#25=LINE('',#334,#37);
#26=LINE('',#335,#38);
#27=LINE('',#343,#39);
#28=LINE('',#344,#40);
#29=LINE('',#350,#41);
#30=LINE('',#356,#42);
#31=LINE('',#362,#43);
#32=LINE('',#368,#44);
#33=VECTOR('',#274,1.73205080756888);
#34=VECTOR('',#275,1.73205080756888);
#35=VECTOR('',#276,1.73205080756888);
#36=VECTOR('',#277,1.73205080756888);
#37=VECTOR('',#278,1.73205080756888);
#38=VECTOR('',#279,1.73205080756888);
#39=VECTOR('',#284,2.);
#40=VECTOR('',#285,2.);
#41=VECTOR('',#288,2.);
#42=VECTOR('',#291,2.);
#43=VECTOR('',#294,2.);
#44=VECTOR('',#297,2.);
#45=CONICAL_SURFACE('',#229,1.7852925,45.);
#46=CONICAL_SURFACE('',#243,0.866025403784439,60.);
#47=PLANE('',#227);
#48=PLANE('',#231);
#49=PLANE('',#235);
#50=PLANE('',#237);
#51=PLANE('',#238);
#52=PLANE('',#239);
#53=PLANE('',#240);
#54=PLANE('',#241);
#55=PLANE('',#242);
#56=CYLINDRICAL_SURFACE('',#225,2.);
#57=CYLINDRICAL_SURFACE('',#236,3.5);
#58=FACE_BOUND('',#81,.T.);
#59=FACE_BOUND('',#83,.T.);
#60=FACE_BOUND('',#85,.T.);
#61=FACE_BOUND('',#87,.T.);
#62=FACE_BOUND('',#90,.T.);
#63=FACE_BOUND('',#92,.T.);
#64=FACE_BOUND('',#94,.T.);
#65=FACE_OUTER_BOUND('',#80,.T.);
#66=FACE_OUTER_BOUND('',#82,.T.);
#67=FACE_OUTER_BOUND('',#84,.T.);
#68=FACE_OUTER_BOUND('',#86,.T.);
#69=FACE_OUTER_BOUND('',#88,.T.);
#70=FACE_OUTER_BOUND('',#89,.T.);
#71=FACE_OUTER_BOUND('',#91,.T.);
#72=FACE_OUTER_BOUND('',#93,.T.);
#73=FACE_OUTER_BOUND('',#95,.T.);
#74=FACE_OUTER_BOUND('',#96,.T.);
#75=FACE_OUTER_BOUND('',#97,.T.);
#76=FACE_OUTER_BOUND('',#98,.T.);
#77=FACE_OUTER_BOUND('',#99,.T.);
#78=FACE_OUTER_BOUND('',#100,.T.);
#79=FACE_OUTER_BOUND('',#101,.T.);
#80=EDGE_LOOP('',(#153));
#81=EDGE_LOOP('',(#154));
#82=EDGE_LOOP('',(#155));
#83=EDGE_LOOP('',(#156));
#84=EDGE_LOOP('',(#157));
#85=EDGE_LOOP('',(#158));
#86=EDGE_LOOP('',(#159));
#87=EDGE_LOOP('',(#160));
#88=EDGE_LOOP('',(#161));
#89=EDGE_LOOP('',(#162));
#90=EDGE_LOOP('',(#163));
#91=EDGE_LOOP('',(#164));
#92=EDGE_LOOP('',(#165,#166,#167,#168,#169,#170));
#93=EDGE_LOOP('',(#171));
#94=EDGE_LOOP('',(#172));
#95=EDGE_LOOP('',(#173,#174,#175,#176));
#96=EDGE_LOOP('',(#177,#178,#179,#180));
#97=EDGE_LOOP('',(#181,#182,#183,#184));
#98=EDGE_LOOP('',(#185,#186,#187,#188));
#99=EDGE_LOOP('',(#189,#190,#191,#192));
#100=EDGE_LOOP('',(#193,#194,#195,#196));
#101=EDGE_LOOP('',(#197,#198,#199,#200,#201,#202));
#102=CIRCLE('',#223,2.1);
#103=CIRCLE('',#224,2.);
#104=CIRCLE('',#226,2.);
#105=CIRCLE('',#228,3.5);
#106=CIRCLE('',#230,1.570585);
#107=CIRCLE('',#233,3.1);
#108=CIRCLE('',#234,3.5);
#109=VERTEX_POINT('',#304);
#110=VERTEX_POINT('',#306);
#111=VERTEX_POINT('',#309);
#112=VERTEX_POINT('',#312);
#113=VERTEX_POINT('',#315);
#114=VERTEX_POINT('',#319);
#115=VERTEX_POINT('',#321);
#116=VERTEX_POINT('',#324);
#117=VERTEX_POINT('',#325);
#118=VERTEX_POINT('',#327);
#119=VERTEX_POINT('',#329);
#120=VERTEX_POINT('',#331);
#121=VERTEX_POINT('',#333);
#122=VERTEX_POINT('',#338);
#123=VERTEX_POINT('',#339);
#124=VERTEX_POINT('',#346);
#125=VERTEX_POINT('',#352);
#126=VERTEX_POINT('',#358);
#127=VERTEX_POINT('',#364);
#128=EDGE_CURVE('',#109,#109,#102,.T.);
#129=EDGE_CURVE('',#110,#110,#103,.T.);
#130=EDGE_CURVE('',#111,#111,#104,.T.);
#131=EDGE_CURVE('',#112,#112,#105,.T.);
#132=EDGE_CURVE('',#113,#113,#106,.T.);
#133=EDGE_CURVE('',#114,#114,#107,.T.);
#134=EDGE_CURVE('',#115,#115,#108,.T.);
#135=EDGE_CURVE('',#116,#117,#21,.T.);
#136=EDGE_CURVE('',#117,#118,#22,.T.);
#137=EDGE_CURVE('',#118,#119,#23,.T.);
#138=EDGE_CURVE('',#119,#120,#24,.T.);
#139=EDGE_CURVE('',#120,#121,#25,.T.);
#140=EDGE_CURVE('',#121,#116,#26,.T.);
#141=EDGE_CURVE('',#122,#123,#15,.T.);
#142=EDGE_CURVE('',#122,#121,#27,.T.);
#143=EDGE_CURVE('',#123,#120,#28,.T.);
#144=EDGE_CURVE('',#124,#122,#16,.T.);
#145=EDGE_CURVE('',#124,#116,#29,.T.);
#146=EDGE_CURVE('',#125,#124,#17,.T.);
#147=EDGE_CURVE('',#125,#117,#30,.T.);
#148=EDGE_CURVE('',#126,#125,#18,.T.);
#149=EDGE_CURVE('',#118,#126,#31,.T.);
#150=EDGE_CURVE('',#123,#127,#19,.T.);
#151=EDGE_CURVE('',#127,#119,#32,.T.);
#152=EDGE_CURVE('',#127,#126,#20,.T.);
#153=ORIENTED_EDGE('',*,*,#128,.T.);
#154=ORIENTED_EDGE('',*,*,#129,.T.);
#155=ORIENTED_EDGE('',*,*,#130,.F.);
#156=ORIENTED_EDGE('',*,*,#129,.F.);
#157=ORIENTED_EDGE('',*,*,#131,.T.);
#158=ORIENTED_EDGE('',*,*,#128,.F.);
#159=ORIENTED_EDGE('',*,*,#130,.T.);
#160=ORIENTED_EDGE('',*,*,#132,.T.);
#161=ORIENTED_EDGE('',*,*,#132,.F.);
#162=ORIENTED_EDGE('',*,*,#133,.T.);
#163=ORIENTED_EDGE('',*,*,#134,.T.);
#164=ORIENTED_EDGE('',*,*,#133,.F.);
#165=ORIENTED_EDGE('',*,*,#135,.T.);
#166=ORIENTED_EDGE('',*,*,#136,.T.);
#167=ORIENTED_EDGE('',*,*,#137,.T.);
#168=ORIENTED_EDGE('',*,*,#138,.T.);
#169=ORIENTED_EDGE('',*,*,#139,.T.);
#170=ORIENTED_EDGE('',*,*,#140,.T.);
#171=ORIENTED_EDGE('',*,*,#131,.F.);
#172=ORIENTED_EDGE('',*,*,#134,.F.);
#173=ORIENTED_EDGE('',*,*,#141,.F.);
#174=ORIENTED_EDGE('',*,*,#142,.T.);
#175=ORIENTED_EDGE('',*,*,#139,.F.);
#176=ORIENTED_EDGE('',*,*,#143,.F.);
#177=ORIENTED_EDGE('',*,*,#144,.F.);
#178=ORIENTED_EDGE('',*,*,#145,.T.);
#179=ORIENTED_EDGE('',*,*,#140,.F.);
#180=ORIENTED_EDGE('',*,*,#142,.F.);
#181=ORIENTED_EDGE('',*,*,#146,.F.);
#182=ORIENTED_EDGE('',*,*,#147,.T.);
#183=ORIENTED_EDGE('',*,*,#135,.F.);
#184=ORIENTED_EDGE('',*,*,#145,.F.);
#185=ORIENTED_EDGE('',*,*,#148,.F.);
#186=ORIENTED_EDGE('',*,*,#149,.F.);
#187=ORIENTED_EDGE('',*,*,#136,.F.);
#188=ORIENTED_EDGE('',*,*,#147,.F.);
#189=ORIENTED_EDGE('',*,*,#150,.F.);
#190=ORIENTED_EDGE('',*,*,#143,.T.);
#191=ORIENTED_EDGE('',*,*,#138,.F.);
#192=ORIENTED_EDGE('',*,*,#151,.F.);
#193=ORIENTED_EDGE('',*,*,#152,.F.);
#194=ORIENTED_EDGE('',*,*,#151,.T.);
#195=ORIENTED_EDGE('',*,*,#137,.F.);
#196=ORIENTED_EDGE('',*,*,#149,.T.);
#197=ORIENTED_EDGE('',*,*,#148,.T.);
#198=ORIENTED_EDGE('',*,*,#146,.T.);
#199=ORIENTED_EDGE('',*,*,#144,.T.);
#200=ORIENTED_EDGE('',*,*,#141,.T.);
#201=ORIENTED_EDGE('',*,*,#150,.T.);
#202=ORIENTED_EDGE('',*,*,#152,.T.);
#203=TOROIDAL_SURFACE('',#222,2.1,0.1);
#204=TOROIDAL_SURFACE('',#232,3.1,0.4);
#205=ADVANCED_FACE('',(#65,#58),#203,.F.);
#206=ADVANCED_FACE('',(#66,#59),#56,.T.);
#207=ADVANCED_FACE('',(#67,#60),#47,.T.);
#208=ADVANCED_FACE('',(#68,#61),#45,.T.);
#209=ADVANCED_FACE('',(#69),#48,.T.);
#210=ADVANCED_FACE('',(#70,#62),#204,.T.);
#211=ADVANCED_FACE('',(#71,#63),#49,.T.);
#212=ADVANCED_FACE('',(#72,#64),#57,.T.);
#213=ADVANCED_FACE('',(#73),#50,.F.);
#214=ADVANCED_FACE('',(#74),#51,.F.);
#215=ADVANCED_FACE('',(#75),#52,.F.);
#216=ADVANCED_FACE('',(#76),#53,.F.);
#217=ADVANCED_FACE('',(#77),#54,.F.);
#218=ADVANCED_FACE('',(#78),#55,.F.);
#219=ADVANCED_FACE('',(#79),#46,.F.);
#220=CLOSED_SHELL('',(#205,#206,#207,#208,#209,#210,#211,#212,#213,#214,
#215,#216,#217,#218,#219));
#221=AXIS2_PLACEMENT_3D('placement',#302,#244,#245);
#222=AXIS2_PLACEMENT_3D('',#303,#246,#247);
#223=AXIS2_PLACEMENT_3D('',#305,#248,#249);
#224=AXIS2_PLACEMENT_3D('',#307,#250,#251);
#225=AXIS2_PLACEMENT_3D('',#308,#252,#253);
#226=AXIS2_PLACEMENT_3D('',#310,#254,#255);
#227=AXIS2_PLACEMENT_3D('',#311,#256,#257);
#228=AXIS2_PLACEMENT_3D('',#313,#258,#259);
#229=AXIS2_PLACEMENT_3D('',#314,#260,#261);
#230=AXIS2_PLACEMENT_3D('',#316,#262,#263);
#231=AXIS2_PLACEMENT_3D('',#317,#264,#265);
#232=AXIS2_PLACEMENT_3D('',#318,#266,#267);
#233=AXIS2_PLACEMENT_3D('',#320,#268,#269);
#234=AXIS2_PLACEMENT_3D('',#322,#270,#271);
#235=AXIS2_PLACEMENT_3D('',#323,#272,#273);
#236=AXIS2_PLACEMENT_3D('',#336,#280,#281);
#237=AXIS2_PLACEMENT_3D('',#337,#282,#283);
#238=AXIS2_PLACEMENT_3D('',#345,#286,#287);
#239=AXIS2_PLACEMENT_3D('',#351,#289,#290);
#240=AXIS2_PLACEMENT_3D('',#357,#292,#293);
#241=AXIS2_PLACEMENT_3D('',#363,#295,#296);
#242=AXIS2_PLACEMENT_3D('',#369,#298,#299);
#243=AXIS2_PLACEMENT_3D('',#373,#300,#301);
#244=DIRECTION('axis',(0.,0.,1.));
#245=DIRECTION('refdir',(1.,0.,0.));
#246=DIRECTION('center_axis',(1.,1.33858331039132E-17,0.));
#247=DIRECTION('ref_axis',(0.,0.,-1.));
#248=DIRECTION('center_axis',(1.,1.33858331039132E-17,0.));
#249=DIRECTION('ref_axis',(1.33858331039132E-17,-1.,1.22464679914735E-16));
#250=DIRECTION('center_axis',(-1.,-1.33858331039132E-17,0.));
#251=DIRECTION('ref_axis',(1.73472347597681E-17,-1.,1.22464679914735E-16));
#252=DIRECTION('center_axis',(1.,1.33858331039132E-17,0.));
#253=DIRECTION('ref_axis',(0.,1.,0.));
#254=DIRECTION('center_axis',(1.,1.33858331039132E-17,0.));
#255=DIRECTION('ref_axis',(0.,-1.,0.));
#256=DIRECTION('center_axis',(1.,1.33858331039132E-17,0.));
#257=DIRECTION('ref_axis',(0.,0.,-1.));
#258=DIRECTION('center_axis',(1.,1.33858331039132E-17,0.));
#259=DIRECTION('ref_axis',(0.,1.,0.));
#260=DIRECTION('center_axis',(-1.,-1.33858331039132E-17,0.));
#261=DIRECTION('ref_axis',(5.88799557649784E-18,-1.,0.));
#262=DIRECTION('center_axis',(-1.,-1.33858331039132E-17,0.));
#263=DIRECTION('ref_axis',(1.33858331039132E-17,-1.,0.));
#264=DIRECTION('center_axis',(1.,1.33858331039132E-17,0.));
#265=DIRECTION('ref_axis',(0.,0.,-1.));
#266=DIRECTION('center_axis',(1.,1.33858331039132E-17,0.));
#267=DIRECTION('ref_axis',(0.,0.,-1.));
#268=DIRECTION('center_axis',(1.,1.33858331039132E-17,0.));
#269=DIRECTION('ref_axis',(1.33858331039132E-17,-1.,1.22464679914735E-16));
#270=DIRECTION('center_axis',(-1.,-1.33858331039132E-17,0.));
#271=DIRECTION('ref_axis',(1.98254111540206E-17,-1.,1.22464679914735E-16));
#272=DIRECTION('center_axis',(-1.,-1.33858331039132E-17,0.));
#273=DIRECTION('ref_axis',(0.,0.,1.));
#274=DIRECTION('',(-1.50152669245734E-32,1.12172823372375E-15,1.));
#275=DIRECTION('',(1.15924715188076E-17,-0.866025403784438,0.500000000000001));
#276=DIRECTION('',(1.15924715188076E-17,-0.866025403784439,-0.5));
#277=DIRECTION('',(2.14503813208192E-33,-1.60246890531964E-16,-1.));
#278=DIRECTION('',(-1.15924715188076E-17,0.866025403784438,-0.5));
#279=DIRECTION('',(-1.15924715188076E-17,0.866025403784439,0.5));
#280=DIRECTION('center_axis',(1.,1.33858331039132E-17,0.));
#281=DIRECTION('ref_axis',(0.,1.,0.));
#282=DIRECTION('center_axis',(6.69291655195662E-18,-0.5,-0.866025403784439));
#283=DIRECTION('ref_axis',(-1.,0.,0.));
#284=DIRECTION('',(-1.,-1.33858331039132E-17,0.));
#285=DIRECTION('',(-1.,-1.33858331039132E-17,0.));
#286=DIRECTION('center_axis',(-6.69291655195661E-18,0.5,-0.866025403784439));
#287=DIRECTION('ref_axis',(-1.,0.,1.11022302462516E-17));
#288=DIRECTION('',(-1.,-1.33858331039132E-17,0.));
#289=DIRECTION('center_axis',(-1.33858331039132E-17,1.,-1.12172823372375E-15));
#290=DIRECTION('ref_axis',(0.,1.13242748511766E-15,1.));
#291=DIRECTION('',(-1.,-1.33858331039132E-17,0.));
#292=DIRECTION('center_axis',(-6.69291655195662E-18,0.500000000000001,0.866025403784438));
#293=DIRECTION('ref_axis',(1.,0.,0.));
#294=DIRECTION('',(1.,1.33858331039132E-17,0.));
#295=DIRECTION('center_axis',(1.33858331039132E-17,-1.,1.60246890531964E-16));
#296=DIRECTION('ref_axis',(0.,-1.55431223447522E-16,-1.));
#297=DIRECTION('',(-1.,-1.33858331039132E-17,0.));
#298=DIRECTION('center_axis',(6.69291655195661E-18,-0.5,0.866025403784439));
#299=DIRECTION('ref_axis',(1.,0.,-1.11022302462516E-17));
#300=DIRECTION('center_axis',(-1.,-1.33858331039132E-17,0.));
#301=DIRECTION('ref_axis',(0.,1.,0.));
#302=CARTESIAN_POINT('',(0.,0.,0.));
#303=CARTESIAN_POINT('Origin',(0.100000000000002,-1.05748081520914E-16,
0.));
#304=CARTESIAN_POINT('',(2.22703026925163E-15,2.1,0.));
#305=CARTESIAN_POINT('Origin',(2.25514051876985E-15,-1.07086664831306E-16,
0.));
#306=CARTESIAN_POINT('',(0.100000000000002,2.,-4.89858719658941E-16));
#307=CARTESIAN_POINT('Origin',(0.100000000000002,-1.05748081520914E-16,
0.));
#308=CARTESIAN_POINT('Origin',(4.875,-4.18307284497288E-17,0.));
#309=CARTESIAN_POINT('',(7.570585,2.,2.4492935982947E-16));
#310=CARTESIAN_POINT('Origin',(7.570585,-5.74807752231688E-18,0.));
#311=CARTESIAN_POINT('Origin',(2.22044604925031E-15,2.75,0.));
#312=CARTESIAN_POINT('',(2.22044604925031E-15,3.5,0.));
#313=CARTESIAN_POINT('Origin',(2.22044604925031E-15,-1.07086664831306E-16,
0.));
#314=CARTESIAN_POINT('Origin',(7.7852925,-2.87403876115844E-18,0.));
#315=CARTESIAN_POINT('',(8.,1.570585,-1.92341189303884E-16));
#316=CARTESIAN_POINT('Origin',(8.,1.05926146941298E-32,0.));
#317=CARTESIAN_POINT('Origin',(8.,0.999999999999999,0.));
#318=CARTESIAN_POINT('Origin',(-3.59999999999999,-1.55275664005393E-16,
0.));
#319=CARTESIAN_POINT('',(-3.99999999999999,3.1,0.));
#320=CARTESIAN_POINT('Origin',(-3.99999999999999,-1.60629997246959E-16,
0.));
#321=CARTESIAN_POINT('',(-3.59999999999999,3.5,-8.57252759403148E-16));
#322=CARTESIAN_POINT('Origin',(-3.59999999999999,-1.55275664005393E-16,
0.));
#323=CARTESIAN_POINT('Origin',(-3.99999999999999,2.61602540378444,0.));
#324=CARTESIAN_POINT('',(-3.99999999999999,1.5,-0.86602540378444));
#325=CARTESIAN_POINT('',(-3.99999999999999,1.5,0.866025403784437));
#326=CARTESIAN_POINT('',(-3.99999999999999,1.5,0.433012701892218));
#327=CARTESIAN_POINT('',(-3.99999999999999,5.14850504980229E-17,1.73205080756888));
#328=CARTESIAN_POINT('',(-3.99999999999999,0.375,1.51554445662277));
#329=CARTESIAN_POINT('',(-3.99999999999999,-1.5,0.866025403784439));
#330=CARTESIAN_POINT('',(-3.99999999999999,-1.125,1.08253175473055));
#331=CARTESIAN_POINT('',(-3.99999999999999,-1.5,-0.866025403784438));
#332=CARTESIAN_POINT('',(-3.99999999999999,-1.5,-0.433012701892219));
#333=CARTESIAN_POINT('',(-3.99999999999999,-3.69516912587382E-16,-1.73205080756888));
#334=CARTESIAN_POINT('',(-3.99999999999999,-0.375000000000001,-1.51554445662277));
#335=CARTESIAN_POINT('',(-3.99999999999999,1.125,-1.08253175473055));
#336=CARTESIAN_POINT('Origin',(-2.,-1.33858331039132E-16,0.));
#337=CARTESIAN_POINT('Origin',(-3.99999999999999,-3.69516912587382E-16,
-1.73205080756888));
#338=CARTESIAN_POINT('',(-1.99999999999999,-3.89561968026607E-16,-1.73205080756888));
#339=CARTESIAN_POINT('',(-1.99999999999999,-1.5,-0.866025403784438));
#340=CARTESIAN_POINT('Ctrl Pts',(-1.99999999999999,-1.8224177951588E-15,
-1.73205080756888));
#341=CARTESIAN_POINT('Ctrl Pts',(-1.74999999999999,-0.750000000000001,-1.29903810567666));
#342=CARTESIAN_POINT('Ctrl Pts',(-1.99999999999999,-1.5,-0.866025403784439));
#343=CARTESIAN_POINT('',(-2.99999999999999,-4.16333634234434E-16,-1.73205080756888));
#344=CARTESIAN_POINT('',(-2.99999999999999,-1.5,-0.866025403784438));
#345=CARTESIAN_POINT('Origin',(-3.99999999999999,1.5,-0.86602540378444));
#346=CARTESIAN_POINT('',(-1.99999999999999,1.5,-0.86602540378444));
#347=CARTESIAN_POINT('Ctrl Pts',(-1.99999999999999,1.5,-0.86602540378444));
#348=CARTESIAN_POINT('Ctrl Pts',(-1.74999999999999,0.75,-1.29903810567666));
#349=CARTESIAN_POINT('Ctrl Pts',(-1.99999999999999,8.14361888325941E-16,
-1.73205080756888));
#350=CARTESIAN_POINT('',(-2.99999999999999,1.5,-0.86602540378444));
#351=CARTESIAN_POINT('Origin',(-3.99999999999999,1.5,0.866025403784437));
#352=CARTESIAN_POINT('',(-1.99999999999999,1.5,0.866025403784436));
#353=CARTESIAN_POINT('Ctrl Pts',(-1.99999999999999,1.5,0.866025403784434));
#354=CARTESIAN_POINT('Ctrl Pts',(-1.74999999999999,1.5,-1.89784666878342E-15));
#355=CARTESIAN_POINT('Ctrl Pts',(-1.99999999999999,1.5,-0.866025403784437));
#356=CARTESIAN_POINT('',(-2.99999999999999,1.5,0.866025403784436));
#357=CARTESIAN_POINT('Origin',(-3.99999999999999,-5.35433324156528E-17,
1.73205080756888));
#358=CARTESIAN_POINT('',(-1.99999999999999,-5.28339846104752E-16,1.73205080756888));
#359=CARTESIAN_POINT('Ctrl Pts',(-1.99999999999999,1.64702915679481E-15,
1.73205080756888));
#360=CARTESIAN_POINT('Ctrl Pts',(-1.74999999999999,0.75,1.29903810567666));
#361=CARTESIAN_POINT('Ctrl Pts',(-1.99999999999999,1.5,0.866025403784438));
#362=CARTESIAN_POINT('',(-2.99999999999999,-5.55111512312578E-16,1.73205080756888));
#363=CARTESIAN_POINT('Origin',(-3.99999999999999,-1.5,-0.866025403784438));
#364=CARTESIAN_POINT('',(-1.99999999999999,-1.5,0.866025403784439));
#365=CARTESIAN_POINT('Ctrl Pts',(-1.99999999999999,-1.5,-0.866025403784437));
#366=CARTESIAN_POINT('Ctrl Pts',(-1.74999999999999,-1.5,6.93889390390723E-17));
#367=CARTESIAN_POINT('Ctrl Pts',(-1.99999999999999,-1.5,0.866025403784437));
#368=CARTESIAN_POINT('',(-2.99999999999999,-1.5,0.866025403784439));
#369=CARTESIAN_POINT('Origin',(-3.99999999999999,-1.5,0.866025403784439));
#370=CARTESIAN_POINT('Ctrl Pts',(-1.99999999999999,-1.5,0.86602540378444));
#371=CARTESIAN_POINT('Ctrl Pts',(-1.74999999999999,-0.75,1.29903810567666));
#372=CARTESIAN_POINT('Ctrl Pts',(-1.99999999999999,-1.54486203900252E-15,
1.73205080756888));
#373=CARTESIAN_POINT('Origin',(-1.49999999999999,-1.27165414487176E-16,
0.));
#374=UNCERTAINTY_MEASURE_WITH_UNIT(LENGTH_MEASURE(0.01),#378,
'DISTANCE_ACCURACY_VALUE',
'Maximum model space distance between geometric entities at asserted c
onnectivities');
#375=UNCERTAINTY_MEASURE_WITH_UNIT(LENGTH_MEASURE(1.E-6),#378,
'DISTANCE_ACCURACY_VALUE',
'Maximum model space distance between geometric entities at asserted c
onnectivities');
#376=(
GEOMETRIC_REPRESENTATION_CONTEXT(3)
GLOBAL_UNCERTAINTY_ASSIGNED_CONTEXT((#374))
GLOBAL_UNIT_ASSIGNED_CONTEXT((#378,#381,#379))
REPRESENTATION_CONTEXT('','3D')
);
#377=(
GEOMETRIC_REPRESENTATION_CONTEXT(3)
GLOBAL_UNCERTAINTY_ASSIGNED_CONTEXT((#375))
GLOBAL_UNIT_ASSIGNED_CONTEXT((#378,#381,#379))
REPRESENTATION_CONTEXT('','3D')
);
#378=(
LENGTH_UNIT()
NAMED_UNIT(*)
SI_UNIT(.MILLI.,.METRE.)
);
#379=(
NAMED_UNIT(*)
SI_UNIT($,.STERADIAN.)
SOLID_ANGLE_UNIT()
);
#380=DIMENSIONAL_EXPONENTS(0.,0.,0.,0.,0.,0.,0.);
#381=(
CONVERSION_BASED_UNIT('degree',#383)
NAMED_UNIT(#380)
PLANE_ANGLE_UNIT()
);
#382=(
NAMED_UNIT(*)
PLANE_ANGLE_UNIT()
SI_UNIT($,.RADIAN.)
);
#383=PLANE_ANGLE_MEASURE_WITH_UNIT(PLANE_ANGLE_MEASURE(0.01745329252),#382);
#384=SHAPE_DEFINITION_REPRESENTATION(#385,#386);
#385=PRODUCT_DEFINITION_SHAPE('',$,#388);
#386=SHAPE_REPRESENTATION('',(#221),#376);
#387=DESIGN_CONTEXT('part definition',#392,'design');
#388=PRODUCT_DEFINITION('DIN912_M4x0,7x8','DIN912_M4x0,7x8',#389,#387);
#389=PRODUCT_DEFINITION_FORMATION('',$,#394);
#390=PRODUCT_RELATED_PRODUCT_CATEGORY('DIN912_M4x0,7x8',
'DIN912_M4x0,7x8',(#394));
#391=APPLICATION_PROTOCOL_DEFINITION('international standard',
'ap203_configuration_controlled_3d_design_of_mechanical_parts_and_asse
mblies_mim_lf',2004,#392);
#392=APPLICATION_CONTEXT(
'Configuration Controlled 3D Design of Mechanical Parts and Assemblies');
#393=MECHANICAL_CONTEXT('part definition',#392,'mechanical');
#394=PRODUCT('DIN912_M4x0,7x8','DIN912_M4x0,7x8',$,(#393));
#395=PRESENTATION_STYLE_ASSIGNMENT((#396));
#396=SURFACE_STYLE_USAGE(.BOTH.,#397);
#397=SURFACE_SIDE_STYLE('',(#398));
#398=SURFACE_STYLE_FILL_AREA(#399);
#399=FILL_AREA_STYLE('',(#400));
#400=FILL_AREA_STYLE_COLOUR('',#401);
#401=COLOUR_RGB('',0.63921568627451,0.63921568627451,0.662745098039216);
ENDSEC;
END-ISO-10303-21;
